Song name
# A B C D E F G H I J K L M N O P Q R S T U V W X Y Z

Jonas Brothers - Tell Me Why tab

----------------------------------------------------------------------------
			   Tell Me Why - Jonas Brothers
---------------------------------------------------------------------------
Tabbed by: XxGuitarZer0xX

Email: SpongeBobs400s@hotmail.com

Tuning: Standard

Piano Intro - Converted To Guitar
e|-------------------------------------|
B|-------------------------------------|
G|-77777777-55555555-55555555-33333333-|
D|-xxxxxxxx-xxxxxxxx-xxxxxxxx-xxxxxxxx-| Repeats all through out the song
A|-55555555-33333333-33333333-11111111-|
E|-------------------------------------|
Palm mute for most effective use of the octaves

Guitar In Intro - Guitar 1
e|---------------|
B|---------------|
G|-7------7--7---|
D|-7------7--7---|
A|-5------5--5---|
E|---------------|


Guitar In Intro - Guitar 2
e|---------------|
B|-5------5--5---|
G|-7b9----7b97b9-|
D|---------------|
A|---------------|
E|---------------|


Verse  - Both guitars (lyrics) Its not Like I dont...
e|--------------------------|
B|--------------------------|
G|-------5-----5---------5~-|
D|-8~-3~-5-----5-8---3---5~-|
A|-8~-3~-3-----3-8---3---3~-|
E|-6~-1~---------6---1------|

Chorus - Guitar 1     (lyrics) Tell me why, WHY? WHY?
e|-------------------------------------|
B|-------------------------------------|
G|-77777777-55555555-55555555-33333333-|
D|-77777777-55555555-55555555-33333333-|
A|-55555555-33333333-33333333-11111111-|
E|-------------------------------------|
Palm mute all of these notes

Chorus -Guitar 2
e|-------------------------------------|
B|-------------------------------------|
G|-77777777-55555555-55555555-33333333-|
D|-77777777-55555555-55555555-33333333-| This repeats
A|-55555555-33333333-33333333-11111111-| With some variations so
E|-------------------------------------| Listen closely for the palm mutes.
Pm  ** ** *  ** ** *  ** ** *  ** ** *


Solo - one guitar plays this while one guitar plays the chorus 2 guitar
e|------------------------------------------------------------------8~----8~---------|
B|----------------------------------------8-----8-----------6-8-8b10--8b10--8h10p8---|
G|-7b9-7b9r7p5----------5-7~-5h7p5--------10b12-10b12r7---7-----------------------7~-|
D|------------------5h7--------------------------------10----------------------------|
A|--------------5h7----------------8-5~----------------------------------------------|
E|-----------------------------------------------------------------------------------|

Verse  - Both guitars (lyrics) Now I can see the storms
e|--------------------------------------|
B|--------------------------------------|
G|-------5555/7~-------------5555555555-|
D|-8~-3~-xxxx/x-----8~---3~--xxxxxxxxxx-|
A|-8~-3~-3333/5~----8~---3~--3333333333-|
E|-6~-1~------------6~---1~-------------|


Chorus - Guitar 1     (lyrics) Tell me why, WHY? WHY?
e|-------------------------------------|
B|-------------------------------------|
G|-77777777-55555555-55555555-33333333-|
D|-77777777-55555555-55555555-33333333-|
A|-55555555-33333333-33333333-11111111-|
E|-------------------------------------|
Palm mute all of these notes

Chorus -Guitar 2
e|-------------------------------------|
B|-------------------------------------|
G|-77777777-55555555-55555555-33333333-|
D|-77777777-55555555-55555555-33333333-| This repeats
A|-55555555-33333333-33333333-11111111-| With some variations so
E|-------------------------------------| Listen closely for the palm mutes.
Pm  ** ** *  ** ** *  ** ** *  ** ** *

Easy to tab by ear
Email me or send me a message if there is a song you want tabbed by the jonas brothers 
the show Jonas
Tap to rate this tab
# A B C D E F G H I J K L M N O P Q R S T U V W X Y Z