Song name
# A B C D E F G H I J K L M N O P Q R S T U V W X Y Z

Jonas Brothers - Im Gonna Getcha Good tab

Jonas Brothers Cover - Im Gonna Getcha Good

This is the tab for the video lesson of XxGuitarZer0xX that I learned this song from,
people on youtube wanted a transcribed tab but at that time he didnt know how to write one
now that he knows, I think he forgot about this song. I dont think he would mind if I 
it.

Tuning: Drop D (e B G D A D)

Intro, you can hit eighter the power chord or just the sixth string
e|---------------|
B|---------------|
G|---------------|
D|--5--0--3--5---|
A|--5--0--3--5---|
D|--5--0--3--5---|

Joe: Let's go!

|-----------------------------------|
|-----------------------------------|
|-----------------------------------|
|--3---5--0--3--5---8--7--8--7--3---|      x2
|--3---5--0--3--5---8--7--8--7--3---|
|--3---5--0--3--5---8--7--8--7--3---|
The first 333xxx is only played on the first time

1st Verse
|-----------------|-----------------|
|-----------------|-----------------|
|-----------------|-----------------|
|--5-5--0--3--5---|--5-5--0--3--5---|
|--5-5--0--3--5---|--5-5--0--3--5---|
|--5-5--0--3--5---|--5-5--0--3--5---|

|-----------------|--------------------------|
|-----------------|--------------------------|
|-----------------|--------------------------|
|--5-5--0--3--5---|--5-------8--7--8--7--3---|
|--5-5--0--3--5---|--5-------8--7--8--7--3---|
|--5-5--0--3--5---|--5-------8--7--8--7--3---|

2nd Verse
|-------------------------------|
|-------------------------------|
|-------------------------------|
|--5--0--3--5---8--7--8--7--3---|        x4
|--5--0--3--5---8--7--8--7--3---|
|--5--0--3--5---8--7--8--7--3---|

Prechorus, hit the chord once and let it ring
|--------------------------------------------------------|
|--------------------------------------------------------|
|--10-------8-------10-------6-------3-------5-------8---|
|--10-------8-------10-------6-------3-------5-------8---|
|--8--------6-------8--------8-------1-------3-------6---|
|--------------------------------------------------------|

Chorus, in the first part of the first chorus there isnt guitar but i still play it
|-------------------------------------------|       |------|
|-------------------------------------------|       |------|
|--xx8xx8x8-xx10xx10x10-xx3xx3x3-xx5xx5x5---|       |--8---|
|--xx8xx8x8-xx10xx10x10-xx3xx3x3-xx5xx5x5---|   x4  |--8---|
|--xx6xx6x6-xx8-xx8-x8--xx1xx1x1-xx3xx3x3---|       |--6---|
|-------------------------------------------|       |------|

After chorus
|-------------------------------|
|-------------------------------|
|-------------------------------|
|--5--0--3--5---8--7--8--7--3---|
|--5--0--3--5---8--7--8--7--3---|
|--5--0--3--5---8--7--8--7--3---|

3rd Verse (same as 2nd verse)

Prechorus

Chorus (dont play the part after the chorus)

Bridge
Joe:Well!
|---------------|
|---------------|
|--5--0--3--5---|
|--5--0--3--5---|
|--5--0--3--5---|

Joe:Yeah, yeah, yeah!
|---------------|
|---------------|
|--5--0--3--5---|
|--5--0--3--5---|
|--5--0--3--5---|

Prechorus

Chorus

Outro
|---------------|
|---------------|
|--5--0--3--5---|
|--5--0--3--5---|
|--5--0--3--5---|
Tap to rate this tab
 
# A B C D E F G H I J K L M N O P Q R S T U V W X Y Z