Song name
# A B C D E F G H I J K L M N O P Q R S T U V W X Y Z

Jonas Brothers - Hey Baby tab

-----------------------------------------------------------------------------
			     Hey Baby - Jonas Brothers
-----------------------------------------------------------------------------

Tabbed by:XxGuitarzer0xX

Email:Spongebobs400s@hotmail.com

Tuning:Standard

Guitar one is Distortion
Guitar two has Wah and Distortion


Any problems, Watch my guitar cover. - 

http://www.youtube.com/watch?v=C0uzU3-hmdU





Intro - Guitar 1
e|--------------------------------|
B|--------------------------------|
G|-4-44-------------4-44----------|
D|-4-444-445-5-5-55-4-444-445-5-5-| 
A|-2-224-445-5-5-55-2-224-445-5-5-|
E|-----2-223-3-3-35-----2-223-3-3-|

Guitar 2
e|-----------------------|
B|-----------------------|
G|-9b11-9-7--4-4-7-7/4-4-|
D|-----------------------| repeat
A|-----------------------|
E|-----------------------|





Verse 1 - Guitar 1
e|--------------------------------|
B|--------------------------------|
G|-4-44-------------4-44----------|
D|-4-444-445-5-5-55-4-444-445-5-5-| Repeat
A|-2-224-445-5-5-55-2-224-445-5-5-|
E|-----2-223-3-3-35-----2-223-3-3-|





Pre-Chorus
e|----------------------------------------------|
B|----------------------------------------------|
G|----------------------------------------------|
D|---2---2---5------7---------------------------|
A|---2---2---5------7---------------------------|
E|-000-000-333-33-555--5775775775775775775775-2-|




Chorus
e|-------------------------------|
B|-------------------------------|
G|-4-4-4----------7-7-7977-7-3/6-|
D|-4-4-4542-2-242-7-7-7977-7-3/6-| Repeat
A|-2-2-2542-2-242-5-5-5754-4-1/4-|
E|------320-0-020----------------|




Verse 2 - Guitar 1
e|--------------------------------|
B|--------------------------------|
G|-4-44-------------4-44----------|
D|-4-444-445-5-5-55-4-444-445-5-5-| Repeat
A|-2-224-445-5-5-55-2-224-445-5-5-|
E|-----2-223-3-3-35-----2-223-3-3-|




Verse Gap - Guitar 1
e|----------------------|
B|----------------------|
G|--------------------4-|
D|---2---2---5------7-4-|
A|---2---2---5------7-2-|
E|-000-000-333-33-555---|




Verse 2 - Guitar 1
e|--------------------------------|
B|--------------------------------|
G|-4-44-------------4-44----------|
D|-4-444-445-5-5-55-4-444-445-5-5-| Repeat
A|-2-224-445-5-5-55-2-224-445-5-5-|
E|-----2-223-3-3-35-----2-223-3-3-|

Guitar 2
e|-------------------------|
B|---------------10/12-12~-|
G|-11~-11-9----------------|
D|----------9~-------------|
A|-------------------------|
E|-------------------------|




Pre-Chorus
e|----------------------------------------------|
B|----------------------------------------------|
G|----------------------------------------------|
D|---2---2---5------7---------------------------|
A|---2---2---5------7---------------------------|
E|-000-000-333-33-555--5775775775775775775775-2-|





Chorus
e|-------------------------------|
B|-------------------------------|
G|-4-4-4----------7-7-7977-7-3/6-|
D|-4-4-4542-2-242-7-7-7977-7-3/6-| Repeat
A|-2-2-2542-2-242-5-5-5754-4-1/4-|
E|------320-0-020----------------|





Solo - This solo will be broken down into parts. All parts use A Wah Pedal




Solo part 1 - Guitar 2
e|----------------------------------------------------------------------------|
B|--------------------------7---------7-------------------7-------------------|
G|-12b14-12b14-12p9-12/11/9---9p7-7h9---9p7--7h9-9-7/9--7---9--7h9p7-6h7p6-6/-|
D|-------------------------------9---------9----------------------------------|
A|----------------------------------------------------------------------------|
E|----------------------------------------------------------------------------|


Solo Part 2
e|---------6h7p6h7-7p6--------------------------------------7h10p7h10-10/12/14--|
B|-6h7p6p7------------6--------------------10----9-9-9-9h10--------------------|
G|----------------------7-9-7-9-9---7-9/11----11-------------------------------|
D|--------------------------------9--------------------------------------------|
A|-----------------------------------------------------------------------------|
E|-----------------------------------------------------------------------------|


Solo Part 3
e|-12-14-14b16-12-------12---------------------------------------------|
B|----------------15b17----15-12---------------------------------10/12-|
G|-------------------------------14/16---16(speed pick 16 times)-------|
D|---------------------------------------------------------------------|
A|---------------------------------------------------------------------|
E|---------------------------------------------------------------------|



Verse 4 - Guitar 1
e|------------------|
B|------------------|
G|-4-44-------------|
D|-4-444-445-5-5-55-| 
A|-2-224-445-5-5-55-|
E|-----2-223-3-3-35-|




Verse Gap - Guitar 1
e|----------------------|
B|----------------------|
G|--------------------4-|
D|---2---2---5------7-4-|
A|---2---2---5------7-2-|
E|-000-000-333-33-555---|




Bridge - Both Guitars
e|---------------------------------------------------------|
B|---------------------------------------------------------|
G|----------------------------------------------6-7-7/9-7~-|
D|------------------------------------------7-9------------|
A|--------------577577577577-899899899899-9----------------|
E|-577577577577--------------------------------------------|





Chorus and Outro
e|-------------------------------|
B|-------------------------------|
G|-4-4-4----------7-7-7977-7-3/6-|
D|-4-4-4542-2-242-7-7-7977-7-3/6-| Repeat I think 3 or 4 more times
A|-2-2-2542-2-242-5-5-5754-4-1/4-|
E|------320-0-020----------------|


End with a G chord
E-----|
B-----|
G-----|
D-45~-|
A-45~-|
E-23~-|

I hope you enjoyed this wonderful 5 star worthy 100% correct tab!

ENJOY!


| /  slide up
| \  slide down
| h  hammer-on
| p  pull-off
| ~  vibrato

=============================================================================
Tap to rate this tab
 
# A B C D E F G H I J K L M N O P Q R S T U V W X Y Z