Song name
# A B C D E F G H I J K L M N O P Q R S T U V W X Y Z

Jonas Brothers - Goodnight And Goodbye Acoustic tab

Verse:
e-------------------------------------------------------------0--------|e
B------5---5---5---5---6---6---6---6---5---5---5---5---3---3--0--------|B
G------5---5---5---5---5---5---5---5---5---5---5---5---2---2--0--------|G
D-------------------------------------------------------------0--------|D
A--------------------5---5---5---5---3---3---3---3---2---2----0--------|A
E----5---5---5---5--------------------------------------------0--------|E
(x2)


Chorus:
e----x----x----5----x----x----5----0----0----0---0----5----0-----------|e
B----x----x----5----x----x----5----0----0----0---0----5----0-----------|B
G----10---9----5----10---9----5----7----5----4---4----5----9-----------|G
D----10---9----7----10---9----7----7----5----5---5----7----9-----------|D
A----8----7----7----8----7----7----5----3----5---5----7----7-----------|A
E----0----0----5----0----0----5----0----0----3---4----5----0-----------|E


Post-Chorus:
e-------------------------------------------------------------0--------|e
B------5---5---5---5---6---6---6---6---5---5---5---5---3---3--0--------|B
G------5---5---5---5---5---5---5---5---5---5---5---5---2---2--0--------|G
D-------------------------------------------------------------0--------|D
A--------------------5---5---5---5---3---3---3---3---2---2----0--------|A
E----5---5---5---5--------------------------------------------0--------|E


Verse:
e-------------------------------------------------------------0--------|e
B------5---5---5---5---6---6---6---6---5---5---5---5---3---3--0--------|B
G------5---5---5---5---5---5---5---5---5---5---5---5---2---2--0--------|G
D-------------------------------------------------------------0--------|D
A--------------------5---5---5---5---3---3---3---3---2---2----0--------|A
E----5---5---5---5--------------------------------------------0--------|E
(x2)


Chorus:
e----x----x----5----x----x----5----0----0----0---0----5----0-----------|e
B----x----x----5----x----x----5----0----0----0---0----5----0-----------|B
G----10---9----5----10---9----5----7----5----4---4----5----9-----------|G
D----10---9----7----10---9----7----7----5----5---5----7----9-----------|D
A----8----7----7----8----7----7----5----3----5---5----7----7-----------|A
E----0----0----5----0----0----5----0----0----3---4----5----0-----------|E


Post-Chorus:
e-------------------------------------------------------------0--------|e
B------5---5---5---5---6---6---6---6---5---5---5---5---3---3--0--------|B
G------5---5---5---5---5---5---5---5---5---5---5---5---2---2--0--------|G
D-------------------------------------------------------------0--------|D
A--------------------5---5---5---5---3---3---3---3---2---2----0--------|A
E----5---5---5---5--------------------------------------------0--------|E

Bridge:
e----x----0----0---0----5----0-----|e
B----x----0----0---0----5----0-----|B
G----10---5----4---4----5----9-----|G
D----10---5----5---5----7----9-----|D
A----8----3----5---5----7----7-----|A
E----0----0----3---4----5----0-----|E

Chorus:
e----x----x----5----x----x----5----0----0----0---0----5----0-----------|e
B----x----x----5----x----x----5----0----0----0---0----5----0-----------|B
G----10---9----5----10---9----5----7----5----4---4----5----9-----------|G
D----10---9----7----10---9----7----7----5----5---5----7----9-----------|D
A----8----7----7----8----7----7----5----3----5---5----7----7-----------|A
E----0----0----5----0----0----5----0----0----3---4----5----0-----------|E

e--x----0----0---0---5---x----0---0---0---5---0---0---0--0--5---0---5--|e
B--x----0----0---0---5---x----0---0---0---5---0---0---0--0--5---0---5--|B
G--10---5----4---4---5---10---5---4---4---5---7---5---4--4--5---9---5--|G
D--10---5----5---5---7---10---5---5---5---7---7---5---5--5--7---9---7--|D
A--8----3----5---5---7---8----3---5---5---7---5---3---5--5--7---7---7--|A
E--0----0----3---4---5---0----0---3---4---5---0---0---3--4--5---0---5--|E

Thank you for using my tab. I know itís 101% correct. I studied a video of Jonas 
playing it acousticly. I had a really good view of Nickís guitar. Itís all perfectly correct! 
-Missyg1jonas
Tap to rate this tab
 
# A B C D E F G H I J K L M N O P Q R S T U V W X Y Z