Song name
# A B C D E F G H I J K L M N O P Q R S T U V W X Y Z

Jonas Brothers - Eternity tab

INTRO :

|---------------------------------------------------|
|----5---5/7-----7---7/9------9---9/10------11---11-|
|---------------------------------------------------|
|---------------------------------------------------|
|--7---7-------9---9--------11---11--------12---12--|
|---------------------------------------------------|

VERSE 1 :
|---------------------------------------------------|
|----5---5/7-----7---7/9------9---9/10------11---11-|
|---------------------------------------------------| X2
|---------------------------------------------------|
|--7---7-------9---9--------11---11--------12---12--|
|---------------------------------------------------|

PRE-CHORUS :

|---------------------------------------------------|
|----4---3-------5----4-----------------------------|
|---------------------------------------------------| 
|---------------------------------------------------|
|--6---5-------7---6--------------------------------|
|---------------------------------------------------|


CHORUS :

|---------------------------------------------------|
|----5---5/7-----7---7/9------9---9/10------11---11-|
|---------------------------------------------------| X2
|---------------------------------------------------|
|--7---7-------9---9--------11---11--------12---12--|
|---------------------------------------------------|


AND THEN REPEATE THE OTHER PART OF THE SONG .

Tap to rate this tab
 
# A B C D E F G H I J K L M N O P Q R S T U V W X Y Z