Song name
# A B C D E F G H I J K L M N O P Q R S T U V W X Y Z

Jonas Brothers - Sweet Caroline tab

 DONE BY EAR! RATE RATE RATE!!!


 Intro / Bridge
E|--------|
B|--------|
G|-6------|
D|-6-x28--|
A|-4------|
E|--------|

 Verse
E|--------------------------------------|
B|--------------------------------------|
G|-44------99--------------11-9-8-6-44--|
D|-44------99------99------11-9-8-6-44--| 
A|-22------77------99-----9--7-6-4-22--|
E|-----------------77-------------------|

 Verse 2nd time
E|------------------------------------|
B|------------------------------------|
G|-44------99--------------11-9-8-6---|
D|-44------99------99------11-9-8-6---| 
A|-22------77------99-----9--7-6-4---|
E|-----------------77-----------------|

 Pre-Chorus
E|-----------------------------|
B|-----------------------------|
G|-4------6-----4-----6--------|
D|-4------6-----4-----6--------|
A|-2-x16--4-x8-2-x8--4-x8-----|
E|-----------------------------|
 
 Chorus
E|----------------------------------------------|
B|----------------------------------------------|
G|-44-4-4---------------------------------------|
D|-44-4-4-2-2-2----------------8-8-8------------| 
A|-22-2-2-2-2-2----7-6---------8-8-8------------|
E|--------0-0-0--------4-4-4-4-6-6-6-66-6-7-9---|

E|----------------------------------------------|
B|----------------------------------------------|
G|-44-4-4----------------------11-9-8-6---------|
D|-44-4-4-2-2-2----------------11-9-8-6---------| 
A|-22-2-2-2-2-2----7-6---------9--7-6-4---------|
E|--------0-0-0--------4-4-4-4------------------|

 Last Chorus / Outro
E|-----------------------------------------------|
B|-----------------------------------------------|
G|-44-4-4-----------------------------------4----|
D|-44-4-4-2-2-2-----------------------------4----| 
A|-22-2-2-2-2-2----7-6----------------------2----|
E|--------0-0-0--------4-4-4-4--8-7-6-4-2~~------|

Tap to rate this tab
 
# A B C D E F G H I J K L M N O P Q R S T U V W X Y Z