Song name
# A B C D E F G H I J K L M N O P Q R S T U V W X Y Z

Jonas Brothers - Pushing Me Away tab

Pushing me away
Jonas Brothers
GuitarSilvia

 

Intro
e|-----------------------------------------------------------------|
B|-------8-7-----------8-7-----------8-7-----------8-7-------------|
G|-----9-----7-------9-----7-------9-----7-------9-----7-----------|
D|---9---------7---9---------7---9---------7---9---------7---------|
A|-7-------------7-------------7-------------7---------------------|
E|-----------------------------------------------------------------|


Couplet 1
e|-----------------------------------------------------------------|
B|-4-----------------------------4---------------------------------|
G|-4-----5-----6-----7----8-----4-----5-----6----7-----8---------|
D|-2-----5-----6-----7----8-----2-----5-----6----7-----8---------|
A|-------3-----4-----5-----6-----------3----4----5-----6---------|
E|-----------------------------------------------------------------|


Refrein 1
e|-----------------------------------------------------------------|
B|-----------------------------------------------------------------|
G|-5-----7--9--7--5-----7--9--7--5-----7--9--7--5-----7------------|
D|-5--5--7-9--7--5--5--7--9--7--5--5--7--9--7--5--5--7------------|
A|-3-5-5-7--5--3--5--5--7--5--3--5--5--7--5--3--5--5------------|
E|----3--------------3--------------3--------------3---------------|


Couplet 2
e|---|-------------------------------------------------------------|
B|-4-|-4------------------------4----------------------------------|
G|-4-|-4----5----6----7----8----4----5----6----7----8--------------|
D|-2-|-2----5----6----7----8----2----5----6----7----8--------------|
A|---|------3----4----5----6---------3----4----5----6--------------|
E|---|-------------------------------------------------------------|


Refrein 2
e|-----------------------------------------------------------------|
B|-----------------------------------------------------------------|
G|-5-----7--9--7--5-----7--9--7--5-----7--9--7--5-----7------------|
D|-5--5-7--9--7--5--5--7--9--7--5--5--7--9--7--5--5--7------------|
A|-3--5-5-7--5--3--5--5--7--5--3--5--5--7--5--3--5--5------------|
E|----3--------------3--------------3--------------3---------------|












Couplet 3
e|-----------------------------------------------------------------|
B|-----------------------------------------------------------------|
G|-9--5--2--7--8--9--5--2--7--8--9--5--2--7--8--9--5--2------------|
D|-9--5--2--7--8--9--5--2--7--8--9--5--2--7--8--9--5--2------------|
A|-7--3--0--5--6--7--3--0--5--6--7--3--0--5--6--7--3--0------------|
E|-----------------------------------------------------------------|


Refrein 3

e|-------------------------------------------------------|---------|
B|-------------------------------------------------------|---------|
G|-5-----7--9--7--5-----7--9--7--5-----7--9--7--5-----7--|--9--7---|
D|-5--5-7--9--7--5--5--7--9--7--5--5--7--9--7--5--5--7--|--9--7---|
A|-3--5-5-7--5--3--5--5--7--5--3--5--5--7--5--3--5--5--|--7--5---|
E|----3--------------3--------------3--------------3-----|---------|

Outro
e|-----------------------------------------------------------------|
B|-----------------------------------------------------------------|
G|-5-----------7-----9-----7-----5-----------7-----9-----7-----5---|
D|-5-----5-----7-----9-----7-----5-----5-----7-----9-----7-----5---|
A|-3-----5-----5-----7-----5-----3-----5-----5-----7-----5-----3---|
E|-------3-----------------------------3---------------------------|


I thinks it's 99% right
hope you like it!!
Tap to rate this tab
 
# A B C D E F G H I J K L M N O P Q R S T U V W X Y Z