Song name
# A B C D E F G H I J K L M N O P Q R S T U V W X Y Z

Jonas Brothers - World War Iii tab

amaazing song

e|------------------------------| 
B|------------------------------| 
G|-44-44-44-44---------------34-| 
D|-44-44-44-44--22-22--55-54-34-| x2 
A|-22-22-22-22--22-22--55-54-12-| 
E|--------------00-00--33-32----|

 Verse: 
e|------------------------------------------------------|
B|------------------------------------------------------|
G|----34-----34-----34-----34-----34-----34-----34------|
D|-54-34--54-34--54-34--54-34--54-34--54-34--54-34--54-4|
A|-54-12--54-12--54-12--54-12--54-12--54-12--54-12--54-4|
E|-32-----32-----32-----32-----32-----32-----32-----32-2|

Pre-chorus: 
e|-----------| 
B|-----------| 
G|-----------| 
D|-2-5-2-5-7-| 
A|-2-5-2-5-7-| 
E|-0-3-0-3-5-| 

Chorus: 
e|------------------------------| 
B|------------------------------| 
G|-44-44-44-44---------------34-| 
D|-44-44-44-44--22-22--55-54-34-| x2 
A|-22-22-22-22--22-22--55-54-12-| 
E|--------------00-00--33-32----| 

Guitar 2 intro: 
e|------------------------------------------------------|
B|--7---------------7---------------7-------------------|
G|----9/11/9-7--------9/11/9-7--------9-7------9-7-9/11-|
D|-------------9---------------9-7--------9-------------| x2
A|------------------------------------------------------|
E|------------------------------------------------------| 


 Verse: 
e|------------------------------------------------------|
B|------------------------------------------------------|
G|----34-----34-----34-----34-----34-----34-----34------|
D|-54-34--54-34--54-34--54-34--54-34--54-34--54-34--54-4|
A|-54-12--54-12--54-12--54-12--54-12--54-12--54-12--54-4|
E|-32-----32-----32-----32-----32-----32-----32-----32-2|


Chorus: 
e|------------------------------| 
B|------------------------------| 
G|-44-44-44-44---------------34-| 
D|-44-44-44-44--22-22--55-54-34-| x2 
A|-22-22-22-22--22-22--55-54-12-| 
E|--------------00-00--33-32----| 
Tap to rate this tab
# A B C D E F G H I J K L M N O P Q R S T U V W X Y Z