Song name
# A B C D E F G H I J K L M N O P Q R S T U V W X Y Z

Jonas Brothers - A Little Bit Longer tab

              A Little Bit Longer (solo) - Jonas Brothers

I tabbed this out ages ago, but never got round to uploading it.
Leave a comment if you have any corrections :D

Bridge Solo:
e|-------------------------------------------------------15-13-12h13p12--|
B|-8/13-1313131313-8/13-1313131313-7/12-1212121212-15-17-----------------|
G|-7/12-1212121212-7/12-1212121212-7/12-1212121212-----------------------|
D|-----------------------------------------------------------------------|
A|-----------------------------------------------------------------------|
E|-----------------------------------------------------------------------|

e|----------------------------------------------|
B|-13-12h13p12h13p12-12-------------------------|
G|-------------------12-12\9\7/9-9h10p9---------|
D|--------------------------------------10------|
A|-----------------------------------------10\--|
E|----------------------------------------------|

Interlude (Before Outro):
e|-------------------------------------------------15-13--|
B|-10/13-1313131313-10/13-1313131313-11-9-11-15-17--------|
G|-9-/12-1212121212-9-/12-1212121212----------------------|
D|--------------------------------------------------------|
A|--------------------------------------------------------|
E|--------------------------------------------------------|

e|-12h13p12h13p12h13p12------------|
B|----------------------12121212\--|
G|----------------------12121212\--|
D|---------------------------------|
A|---------------------------------|
E|---------------------------------|
Tap to rate this tab
 
# A B C D E F G H I J K L M N O P Q R S T U V W X Y Z