Song name
# A B C D E F G H I J K L M N O P Q R S T U V W X Y Z

Jonas Brothers - Turn Right tab

This is the guitar tab version of Turn Right by the Jonas Brothers.

Capo on first fret(Optional)

Intro and Verse
e|----------------3------|
B|-----3------3-----3----|
G|----0------2-----------|   Repeat 5 times
D|----------0---0h2------|   
A|---2--3----------------|
E|-----------------------|
Pick up all your tears
Throw them in your backseat
Leave without a second glance
Somehow Iím to blame
For this never-ending racetrack you call life

Chorus
e|----------------3------|
B|-----3------3-----3----|
G|----0------2-----------|   Repeat twice
D|----------0---0h2------|
A|---2--3----------------|
E|-----------------------|


e|------------------------3---|
B|-----3-------3---------3----|
G|----0-------2---------2-----|
D|-----------0---0h2---0------|
A|---2--3---------------------|
E|----------------------------|
Turn right
Into my arms
Turn right
You wont be alone
You might 
Fall of this track sometimes
Hope to see you on the finish line

Verse
e|----------------3------|
B|-----3------3-----3----|
G|----0------2-----------|   Repeat 5 times
D|----------0---0h2------|   
A|---2--3----------------|
E|-----------------------|
Driving all your friends out
at a speed they can not follow
Soon you will be on your own
Somehow Iím to blame
For this never-ending racetrack you call life

Chorus
e|----------------3------|
B|-----3------3-----3----|
G|----0------2-----------|   Repeat twice
D|----------0---0h2------|
A|---2--3----------------|
E|-----------------------|


e|------------------------3---|
B|-----3-------3---------3----|
G|----0-------2---------2-----|
D|-----------0---0h2---0------|
A|---2--3---------------------|
E|----------------------------|
Turn right
(turn right)
Into my arms
Turn right
(turn right)
You wont be alone
You might 
(you might)
Fall of this track sometimes
Hope to see you on the finish line



Brigde

Strum each chord once
  
D     Cadd9     G
I did all I could

D       Cadd9   G
I gave everything

        Em     D     Cadd9
But you had to go your way

          Em       D   Cadd9
And that road was not for me


Chorus
e|----------------3------|
B|-----3------3-----3----|
G|----0------2-----------|   Repeat twice
D|----------0---0h2------|
A|---2--3----------------|
E|-----------------------|


e|------------------------3---|
B|-----3-------3---------3----|
G|----0-------2---------2-----|
D|-----------0---0h2---0------|
A|---2--3---------------------|
E|----------------------------|
So turn right
Into my arms
Turn right
You wont be alone
You might 
Fall of this track sometimes
Hope to see you on the finish line



Intro and Verse
e|----------------3------|
B|-----3------3-----3----|
G|----0------2-----------|   
D|----------0---0h2------|
A|---2--3----------------|
E|-----------------------|



The end =)
Tap to rate this tab
# A B C D E F G H I J K L M N O P Q R S T U V W X Y Z