Song name
# A B C D E F G H I J K L M N O P Q R S T U V W X Y Z

Jonas Brothers - Inseperable tab

100% correct! only tabbing kevins part

intro
-----------------------------------------------------------------------|
-----------------------------------------------------------------------|
----13131313\1212/13131313x----13131313\12/13/15/17--17\15\13----------|
--------------------------x--------------------------------------------|
----11111111\1010/11111111x----11111111\10/11/13/15--15\13\11----------|
-----------------------------------------------------------------------|

-----------------------------------------------------------------------|
-----------------------------------------------------------------------|
----13131313\1212/13131313----13131313\12121212------------------------|
-----------------------------------------------------------------------|
----11111111\1010/11111111----111111111\10101010-----------------------|
-----------------------------------------------------------------------|

verse 1 2x

-----------------------------------------------------------------------|
-----------------------------------------------------------------------|
----13--------12-------------------------------------------------------|
-------12x--------4x---------------------------------------------------|
----11--------10-------------------------------------------------------|
-----------------------------------------------------------------------|

chorus 1 2x
-----------------------------------------------------------------------|
-----------------------------------------------------------------------|
----13131313\1212/13131313----17171717/18181818\1717171717-------------|
---------------------------2x-------------------------------1x---------|
----11111111\1010/11111111----15151515/16161616\1515151515-------------|
-----------------------------------------------------------------------|

verse 2 2x pick notes 2x
-----------------------------------------------------------------------|
-----------------------------------------------------------------------|
----1212----1313----1212-----------------------------------------------|
---------4x-----4x------8x---------------------------------------------|
----1515----1212----1313-----------------------------------------------|
-----------------------------------------------------------------------|

chorus 2 2x

-----------------------------------------------------------------------|
-----------------------------------------------------------------------|
----13131313\1212/13131313----17171717/18181818\1717171717-------------|
--------------------------2x------------------------------1x-----------|
----11111111/1010\11111111----15151515/16161616\1515151515-------------|
-----------------------------------------------------------------------|

bridge first part 2x repeat bridge twice pick notes

-----------------------------------------------------------------------|
----13--14-------------------------------------------------------------|
----13-----------------------------------------------------------------|
----13-----------------------------------------------------------------|
-----------------------------------------------------------------------|
-----------------------------------------------------------------------|
bridge pt 2 1x

------------------------------------------------------------------------|
----13--14--------------------------------------------------------------|
----13--15--------------------------------------------------------------|
----13------------------------------------------------------------------|
------------------------------------------------------------------------|
------------------------------------------------------------------------|

interlude/solo

------------------------------------------------------------------------|
------------------------------------------------------------------------|
----13131313\1212/13131313----17171717/18181818\1717171717--------------|
--------------------------2x------------------------------1x------------|
----11111111\1010/11111111----15151515/16161616\1515151515--------------|
------------------------------------------------------------------------|

chorus 2x

------------------------------------------------------------------------|
------------------------------------------------------------------------|
----13131313\1212/13131313----17171717/18181818\1717171717--------------|
--------------------------2x--------------------------------1x----------|
----111111111\1010/1111111----15151515/16161616\1515151515--------------|
------------------------------------------------------------------------|

outro

------------------------------------------------------------------------|
------------------------------------------------------------------------|
----13131313\1212/13131313\1212/1313--17171717/18181818\1717171717------|
------------------------------------2x------------------------------1x--|
----11111111\1010/11111111\1010/1111--15151515/16161616\1515151515------|
------------------------------------------------------------------------|
Tap to rate this tab
# A B C D E F G H I J K L M N O P Q R S T U V W X Y Z