Song name
# A B C D E F G H I J K L M N O P Q R S T U V W X Y Z

Jonas Brothers - I Wanna Be Like You tab

 100% correct! solo included

intro 4x

e|-------------------------------------------------------------|
b|-------------------------------------------------------------|
g|-------------------------------------------------------------|
d|----9--7-----------------------------------------------------|
a|----------77777-9--------------------------------------------|
e|----7--------------------------------------------------------|

slow harmonic from 7th fret to 1st fret


verse 2X

e|-------------------------------------------------------------|
b|-------------------------------------------------------------|
g|-------9-----7--7--7-----------------------------------------|
d|----9--9--7--7--7--7-----------------------------------------|
a|----9--7--7--5--4--5-----------------------------------------|
e|----7-----5--------------------------------------------------|

chorus 2x

e|-------------------------------------------------------------|
b|-------------------------------------------------------------|
g|----7--9--------5--------------------------------------------|
d|----7--9--5--7--5--------------------------------------------|
a|----5--7--5--7--3--------------------------------------------|
e|----------3--5-----------------------------------------------|



verse 2x

SECOND TIME LET LAST NOTE RING
e|-------------------------------------------------------------|
b|-------------------------------------------------------------|
g|-------9-----7--7~-------------------------------------------|
d|----9--9--7--7--7~-------------------------------------------|
a|----9--7--7--5--5~-------------------------------------------|
e|----7-----5--------------------------------------------------|

CHORUS 2X

e|-------------------------------------------------------------|
b|-------------------------------------------------------------|
g|----7--9--------7--------------------------------------------|
d|----7--9--5--7--7--------------------------------------------|
a|----5--7--5--7--5--------------------------------------------|
e|----------3--5-----------------------------------------------|

intro 2x

e|-------------------------------------------------------------|
b|-------------------------------------------------------------|
g|-------------------------------------------------------------|
d|----7--9-----------------------------------------------------|
a|--------77777--9---------------------------------------------|
e|----7--------------------------------------------------------|

solo

e|-------------------------------------------7-7-7-7------------7---7---7--|
b|----------------------------7---7---7------7-7-7-7--7--7--7---10b-10b-10b|
g|-------9b-7--9--9b--9-7-7---9b--9b--9b--------------9b-9b-9b-------------|
d|----9------------------9-------------------------------------------------|
a|-------------------------------------------------------------------------|
e|-------------------------------------------------------------------------|

e|----777---121212---14----------------------------------------------------|
b|----777---------------15-------------------------------------------------|
g|-------------------------------------------------------------------------|
d|-------------------------------------------------------------------------|
a|-------------------------------------------------------------------------|
e|-------------------------------------------------------------------------|

chorus 2x first time palm mute all notes second time strum 


e|-----------------------------------------------------|
b|-----------------------------------------------------|
g|----7--9-------7-------------------------------------|
d|----7--9--5--7-7-------------------------------------|
a|----5--7--5--7-5-------------------------------------|
e|----------3--5---------------------------------------|

outro that kevin plays

e|-----------------------------------------------------|
b|----11--9--7--9--7----10-----------------------------|
g|-------------------9---------------------------------|
d|-----------------------------------------------------|
a|-----------------------------------------------------|
e|-----------------------------------------------------|

trail off on last note



thank you!



Tap to rate this tab
 
# A B C D E F G H I J K L M N O P Q R S T U V W X Y Z