Song name
# A B C D E F G H I J K L M N O P Q R S T U V W X Y Z

Jonas Brothers - Hollywood tab

intro/verse 4x

e|-------------------------|
b|-------------------------|
g|-------------------------|
d|-----5----2--5--3-2------|
a|---------0-----0-0-------|
e|----3------3-------------|

pre-chorus
e|-------------------------|
b|-------------------------|
g|----2----------4~~~~-----|
d|----3--18x-pm--5~~~~-----|
a|----3----------5~~~~-----|
e|----1----------3~~~~-----|

chorus 2x

e|-----------------------------------|
b|-----------------------------------|
g|----5-----2----------2-------------|
d|----5-8x--3-8x-2-----3-4x----------|
a|----3-----3----2--8x-3-------------|
e|----------1----------1-------------|

back to intro/verse

back to chorus

bridge 4x

e|-----------------------------------|
b|-----------------------------------|
g|----7----5----4--------------------|
d|----7-4x-5-4x-5-8x-----------------|
a|----5----3----5--------------------|
e|--------------3--------------------|

back to chours first part after bridge is piano then after that hit e minor once then 
f minor 8x

then do chorus again

then end on e minor
Tap to rate this tab
# A B C D E F G H I J K L M N O P Q R S T U V W X Y Z