Song name
# A B C D E F G H I J K L M N O P Q R S T U V W X Y Z

Jonas Brothers - What Did I Do To Your Heart tab

intro

e|------------------------------------------------------------------------|
b|-------5-7/9-7-55----5--------7/9-55----5---------5-7/9----5---5--7/9---|
g|-----6-------------6----6-4-----------6----6-4--6--------6---6----------|
d|------------------------------------------------------------------------|
a|------------------------------------------------------------------------|
e|------------------------------------------------------------------------|

intro continued


e|--------------------------|
b|--------5--7-999-7-999-7-5|
g|------6-------------------|
d|--------------------------|
a|--------------------------|
e|--------------------------|


thank you!!!
Tap to rate this tab
# A B C D E F G H I J K L M N O P Q R S T U V W X Y Z