Song name
# A B C D E F G H I J K L M N O P Q R S T U V W X Y Z

Jonas Brothers - Turn Right tab

tabbed by: AnnaGrace Hale <,3

this is kinda my version, but it sounds almost identicle.
hope this helps !

tuning: standard
Capo 3

intro:

e|-------------------------------3--------|
B|--------3-------------3-----------3-----|
G|-----0-------------0--------------------|
D|----------------0--------0--2-----------|
A|--2---------3---------------------------|
E|----------------------------------------|    X2

VERSE 1:

e|-------------------------------3--------|
B|--------3-------------3-----------3-----|
G|-----0-------------0--------------------|
D|----------------0--------0--2-----------|
A|--2---------3---------------------------|
E|----------------------------------------|    X2
pick up all your tears. throw them in the back seat.
eave with out a second glance.



e|-------------------------------3--------|
B|--------3-------------3-----------3-----|
G|-----0-------------0--------------------|
D|----------------0--------0--2-----------|
A|--2---------3---------------------------|
E|----------------------------------------|    X2
somehow I'm to blame. for this never ending race track you call life.

CHORUS

e|-------------------------------3--------|
B|--------3-------------3-----------3-----|
G|-----0-------------0--------------------|
D|----------------0--------0--2-----------|
A|--2---------3---------------------------|
E|----------------------------------------|    X3
so turn right. into my arms. turn right. you wont be alone.
you might. fall off this track some time.

then..
e|--------------|
B|--------3-----|
G|-----0--------|
D|--------------|
A|--2---------3-|
E|--------------|


e|-------------------------------3--------|
B|--------3-------------3-----------3-----|
G|-----0-------------0--------------------|
D|----------------0--------0--2-----------|
A|--2---------3---------------------------|
E|----------------------------------------|    X2

VERSE 2:

e|-------------------------------3--------|
B|--------3-------------3-----------3-----|
G|-----0-------------0--------------------|
D|----------------0--------0--2-----------|
A|--2---------3---------------------------|
E|----------------------------------------|    X2
drivin' all your friends out. you just leave, you cannot follow(?)
and soon you will be on your own.

e|-------------------------------3--------|
B|--------3-------------3-----------3-----|
G|-----0-------------0--------------------|
D|----------------0--------0--2-----------|
A|--2---------3---------------------------|
E|----------------------------------------|    X2
somehow I'm to blame. for this never sending race track you call life.

CHORUS REPEATS.

e|-------------------------------3--------|
B|--------3-------------3-----------3-----|
G|-----0-------------0--------------------|
D|----------------0--------0--2-----------|
A|--2---------3---------------------------|
E|----------------------------------------|    X3
so turn right. into my arms. turn right. you wont be alone.
you might. fall off this track some time.

then..
e|--------------|
B|--------3---3-|
G|-----0------0-|
D|--------------|
A|--2---------3-|
E|--------------|

BRIDGE:

e|-3--22222-0----0--00000--0--|
B|-3--3-3-3-0----3--0-0-0--0--|
G|-2--2-2-2-0----0--2-2-2--1--|
D|-0--0-0-3-0----0--2-2-2--2--|
A|-0--------2----2--0-0-0--2--|
E|----------0----0---------0--|
I did all I could. I gave everything.

e|----------------------------------------------|
B|--------3-------------3--------------3---3----|
G|-----0-------------0--------------0------0----|
D|----------------0--------0--2-----------------|
A|--2---------3------------------2---------2----|
E|----------------------------------------------|  X2    
but you had to go your way. and that road was not for me.

e|-------------------------------3--------|
B|--------3-------------3-----------3-----|
G|-----0-------------0--------------------|
D|----------------0--------0--2-----------|
A|--2---------3---------------------------|
E|----------------------------------------|    X4
so turn right. into my arms. turn right. you wont be alone.
you might. fall off this track some time. hope to see at the finish line.
Tap to rate this tab
 
# A B C D E F G H I J K L M N O P Q R S T U V W X Y Z