Song name
# A B C D E F G H I J K L M N O P Q R S T U V W X Y Z

Jonas Brothers - Give Love A Try tab

Hello , my second tab is here !!! I know it must be a bit wrong sometimes, but I think 
sounds like the song ^^ Please try and tell me what you think about that :P


e|--------------------------------------------------------------|
B|--------------------------------------------------------------|
Gb|-----4h5---4h5-----4h5--4h5----3h2---2h1---------------------|
D|--------------------------------------------------------------|
A|----3------3-------3----3-----2------1------------------------|
E|--------------------------------------------------------------|

(You have to do this for all the verses) (Instead of just put a finger on the third fret 
the string A , I bar all the strings , just like that :)

e|--3-------3-------3-------3-------2-------1---------------------|
B|--3-------3-------3-------3-------2-------1---------------------|
Gb|-3--4h5--3--4h5--3--4h5--3--4h5--2--3h2--1--2h1----------------|
D|--3-------3-------3-------3-------2-------1---------------------|
A|--3-------3-------3-------3-------2-------1---------------------|
E|--3-------3-------3-------3-------2-------1---------------------|

Here are the Lyrics :
You , you like driving on the sunday
You , you like taking off on monday
You , you're like a dream... a dream come true

I'm , just a face you never noticed
Now , I'm just trying to be honest
With myself , with you , with the world

Then you have to do this for the chorus (Im not 100% sure this is accurate , sorry :( )

e|----------------------------------------------------------------|
B|----------------------------------------------------------------|
Gb|-----0---0-----2---2-----8----8-----7--------------------------|
D|----------------------------------------------------------------|
A|----2---2----0----0----0-----0-----0----------------------------|
E|----------------------------------------------------------------|

Here are the Lyrics :
You might think that I'm a fool
For falling over you
So tell me what can I do to prove to you
That it's not so hard to do
Give love a try , one more time
'Cause you know that I'm on your side
Give love a try , one more time
Yeah , Yeah , oh...
(repeat the verse , in the end : Yeah Yeah , oh...)

There you are !! I love this song sooo much and i hope you'll like my tab ! I did all by 
, so , it's not 100% right and I'm sorry about it...
Have a nice day ^^
XOXOXOX love XOXOXO

Please comment XD
Tap to rate this tab
# A B C D E F G H I J K L M N O P Q R S T U V W X Y Z