Song name
# A B C D E F G H I J K L M N O P Q R S T U V W X Y Z

Jonas Brothers - Make It Right tab

I tabbed nick jonas' version, the one that he played on his last live chat. please 
and rate and if you have any question this is my youtube account: www.youtube.com/user/kmi777 
also there I have the video of nick playing this song.

tabbed by:kmi777

INTRO
e|----3--3-------3--3-|
B|---3---3------3---3-|
G|--0----0h2---0----0-| x2
D|-------0------------|
A|------------2-----3-|
E|-3------------------|

VERSE
e|----3--3----3--3-|
B|---3---3---3---3-|
G|-----------------| x3
D|-------0---------|
A|----------2----3-|
E|-3---------------|

PRE-CHORUS
e|----3---3---3-|
B|---3---3---3--|
G|--------------|
D|--------------|
A|-0---2---3----|
E|--------------|

CHORUS
e|----3-----3-----3-|
B|---3-----3-----3--|
G|------------------|
D|------------------| x3
A|-------2-----3----|
E|-3----------------|

e|------3---3---3-|
B|-----3---3---3--|
G|----------------|
D|-----------0----|
A|-2-0---2--------|
E|----------------|

OUTRO
e|----3-------------|
B|---3------3----3--|
G|---------0-----O--|
D|------------------|
A|-------2-----3----|
E|-3----------------|

DON'T FORGET TO COMMENT AND RATE :)
Tap to rate this tab
 
# A B C D E F G H I J K L M N O P Q R S T U V W X Y Z