Song name
# A B C D E F G H I J K L M N O P Q R S T U V W X Y Z

Jonas Brothers - Set This Party Off tab

                 Set This Party Off - Jonas Brothers

They've only released a preview of the song, so that's all I've tabbed.
When the full song is released, I'll tab out the rest.
Leave a comment, if you have any corrections :D

Intro:
e|-------------------------|
B|-------------------------|
G|-------------------------|
D|-----------------8~--7~--|
A|--5-5------------8~--7~--|
E|-------2-2--3-3--6~--5~--|

Verse:
e|-------------------------|    
B|-------------------------|    
G|-------------------------|    
D|-----------------8~--7~--| x2 
A|--5-5------------8~--7~--|    
E|-------2-2--3-3--6~--5~--| 
   
e|--------------------------------------------------|
B|--------------------------------------------------|
G|-----------------10~--12~-------------------------|
D|-----------------10~--12~-----------------8~--7~--|
A|--5-5------------8~---10~--5-5------------8~--7~--|
E|-------2-2--3-3-----------------2-2--3-3--6~--5~--|

Pre-chorus:
e|----------------xxxx--|
B|----------------xxxx--|
G|------55555555--xxxx--|
D|--5~--55555555--xxxx--|
A|--5~--33333333--xxxx--|
E|--3~------------xxxx--|

Chorus:
e|--------------|  
B|--------------|    
G|------77------|    
D|--55--77--77--| x4 
A|--55--55--77--|    
E|--33------55--|    
Tap to rate this tab
 
# A B C D E F G H I J K L M N O P Q R S T U V W X Y Z