Jonas Brothers - Hello Beautiful tab

This is my first tab and I'm pretty sure that it's 100% correct.
I figured it all out by ear so hopefully it is right!
I love the Jonas Brothers and this song so I decided to learn it.
Um, it's pretty easy and you can do vibrato on almost every note so that adds a nice 
but don't go overboard.
Also, if you still need help figuring out when to come in, listen to the song, it's very 
to find your spot. Enjoy. =]

First Verse (play right after Nick sings "how's it goin'?"):

E|-----0----------0-------------|
B|-0-2---4-0--0-2---4-0/2-------|
G|---------------------------2--|
D|------------------------------|
A|------------------------------|
E|------------------------------|

Chorus (play all the way through the chorus until Joe sings "cause I could.."):

E|---0---0---0---0---0---0-----|
B|-0---0---0---0---0---0-------|
G|-----------------------------|
D|-----------------------------|
A|-----------------------------|
E|-----------------------------|

Chorus (when Joe sings "I could go across the world..." till the end of the chorus play):

E|-------------0----------------|
B|------------------------------|
G|------------------------------|
D|------------------------------|
A|-4~-3~-2~-1~------------------|
E|------------------------------|


Second Verse (begin playing when Nick sings "it's been a long time..."):

E|-----0----------0-------------|
B|-0-2---4-0--0-2---4-0/2-------|
G|---------------------------2--|
D|------------------------------|
A|------------------------------|
E|------------------------------|

Chorus (wait like the first time):

E|---0---0---0---0---0---0------|
B|-0---0---0---0---0---0--------|
G|------------------------------|
D|------------------------------|
A|------------------------------|
E|------------------------------|

E|-------------0----------------|
B|------------------------------|
G|------------------------------|
D|------------------------------|
A|-4~-3~-2~-1~------------------|
E|------------------------------|

The the very end to the song and chorus:

E|-----------0------------------|
B|---------0--------------------|
G|-------0----------------------|
D|-----0------------------------|
A|---0--------------------------|
E|-0----------------------------|


/ =Slide
~ =Vibrato
Tap to rate this tab
 
# A B C D E F G H I J K L M N O P Q R S T U V W X Y Z