Jonas Brothers - Critical tab

Kk guys here is the lowdown. I converted the intro/outro/verses from piano so i am 
100% sure they are correct. I am however unsure for the chords in the chorus. I will edit 
if I can a better alternate. Give me a buzz if you have any suggestions

Intro:
e|----------------|
B|------1------1--|
G|----------------|
D|----2------2----| x2
A|--3------3------|
E|----------------|

Verse:
e|----------------------------------------------------------------------------------|
B|----1----1----1----1----1----1----1----1----1----1----1----1----1----1----1----1--|
G|-----------------------3----3----2----2-------------------------------------------|
D|---2----2----2----2---3----3----3----3-----3----3----3----3----2----2----2----2---| x2
A|--3----3----2----2------------------------3----3----2----2----3----3----3----3----|
E|----------------------------------------------------------------------------------|

Chorus:
C Am G Em x4

Post-chorus:
e|----------------|
B|------1------1--|
G|----------------|
D|----2------2----| x2
A|--3------3------|
E|----------------|

Verse:
e|----------------------------------------------------------------------------------|
B|----1----1----1----1----1----1----1----1----1----1----1----1----1----1----1----1--|
G|-----------------------3----3----2----2-------------------------------------------|
D|---2----2----2----2---3----3----3----3-----3----3----3----3----2----2----2----2---| x2
A|--3----3----2----2------------------------3----3----2----2----3----3----3----3----|
E|----------------------------------------------------------------------------------|

Chorus:
C Am G Em x4

Bridge:
C Am G Em x2


Chorus:
C Am G Em x5

Outro:
e|----------------|
B|------1------1--|
G|----------------|
D|----2------2----| x4
A|--3------3------|
Tap to rate this tab
 
# A B C D E F G H I J K L M N O P Q R S T U V W X Y Z