Jonas Brothers - Critical tab

-----------------------------------------------------------------------------
			     Critical - Jonas Brothers
-----------------------------------------------------------------------------
Tabbed by: Graciepoo713
This version has the piano part transferred to guitar.
I think it sounds good acoustic, but it's also fun to play on electric.
I hope you enjoy!
Leave a comment and rate 5 stars!

Tuning: Standard eBGDAE

Intro:
e|------------------|
B|------------------|
G|-----8---8--------|
D|---8---8----------| x2
A|-6---6------------|
E|------------------|

Verse 1:
e|-----------------------------------|
B|-----------------------------------|
G|---8---8----8---8----6---6---6---6-|
D|--8---8----8---8----6---6---6---6--|
A|-6---6----5---5----4---4---4---4---|
E|-----------------------------------|
There's a storm coming up and I gotta prepare myself
e|----------------------|
B|----------------------|
G|---5---5----4---4-----|
D|--6---6----6---6------|
A|-6---6----6---6-------|
E|----------------------|
'Cause this feeling's getting stronger
e|------------------|
B|------------------|
G|-----8---8--------|
D|---8---8----------| x2
A|-6---6------------|
E|------------------|
 everyday.
e|-----------------------------------|
B|-----------------------------------|
G|---8---8----8---8----6---6---6---6-|
D|--8---8----8---8----6---6---6---6--|
A|-6---6----5---5----4---4---4---4---|
E|-----------------------------------|
Something's creeping inside. Everything is about to change.
e|----------------------|
B|----------------------|
G|---5---5----4---4-----|
D|--6---6----6---6------|
A|-6---6----6---6-------|
E|----------------------|
Gotta face the fact that I can't walk away

Chorus:
e|--------------------------------------|
B|-----------44444444-------------------|
G|--55555555-55555555-77777777-33333333-|
D|--66666666-55555555-88888888-55555555-| x3
A|--66666666-33333333-88888888-55555555-|
E|--44444444----------66666666-33333333-|
1: This is critical, I'm feeling helpless
2: So hysterical, this can't be healthy
3: I can't eat or sleep when you're not with me. Baby, you're the air i breathe
e|-------------------------------|
B|-----------44444444------------|
G|--55555555-55555555-77777777-7~|
D|--66666666-55555555-88888888-8~| (let ring at the end)
A|--66666666-33333333-88888888-8~|
E|--44444444----------66666666-6~|
This is critical. Yeah. So stuck on you.

Repeat Intro:
e|-------------------|
B|-------------------|
G|-----8----8--------|
D|---8----8----------| x2
A|-6----6------------|
E|-------------------|

Verse 2:
e|-----------------------------------|
B|-----------------------------------|
G|---8---8----8---8----6---6---6---6-|
D|--8---8----8---8----6---6---6---6--|
A|-6---6----5---5----4---4---4---4---|
E|-----------------------------------|
Used to have everything figured out but it's different now
e|----------------------|
B|----------------------|
G|---5---5----4---4-----|
D|--6---6----6---6------|
A|-6---6----6---6-------|
E|----------------------|
When you came, you saw. You conquered
e|-------------------|
B|-------------------|
G|-----8----8--------|
D|---8----8----------| x2
A|-6----6------------|
E|-------------------|
my heart
e|-----------------------------------|
B|-----------------------------------|
G|---8---8----8---8----6---6---6---6-|
D|--8---8----8---8----6---6---6---6--|
A|-6---6----5---5----4---4---4---4---|
E|-----------------------------------|
It's your laugh and your smile. Wanna stay for a little while?
e|----------------------|
B|----------------------|
G|---5---5----4---4-----|
D|--6---6----6---6------|
A|-6---6----6---6-------|
E|----------------------|
I don't wanna go. I just want you in my
e|----------------------|
B|----------------------|
G|-----8----8-----------|
D|---8----8-------------| x2
A|-6----6---------------|
E|----------------------|
arms.

Chorus:
e|--------------------------------------|
B|-----------44444444-------------------|
G|--55555555-55555555-77777777-33333333-|
D|--66666666-55555555-88888888-55555555-| x3
A|--66666666-33333333-88888888-55555555-|
E|--44444444----------66666666-33333333-|
1: This is critical, I'm feeling helpless
2: So hysterical, this can't be healthy
3: I can't eat or sleep when you're not with me. Baby, you're the air i breathe
e|-----------------------------|
B|-----------44444444----------|
G|--55555555-55555555-77777777-|
D|--66666666-55555555-88888888-|
A|--66666666-33333333-88888888-|
E|--44444444----------66666666-|
This is critical. Yeah. So stuck on you.

Bridge:
e|--------------------------------------|
B|-----------44444444-------------------|
G|--55555555-55555555-77777777-33333333-|
D|--66666666-55555555-88888888-55555555-|x2
A|--66666666-33333333-88888888-55555555-|
E|--44444444----------66666666-33333333-|
Used to run and hide. Used to bend our love, but I can't escape this time,
Ohnooo...

Chorus:
e|-----------------------|
B|------------4----------|
G|-----5-----5-----7---3-|
D|----6-6----5----8-8--5-|
A|---6---6---3---8---8-5-|
E|--4-----------6------3-|
This is critical, I'm feeling helpless
e|--------------------------------------|
B|-----------44444444-------------------|
G|--55555555-55555555-77777777-33333333-|
D|--66666666-55555555-88888888-55555555-| x2
A|--66666666-33333333-88888888-55555555-|
E|--44444444----------66666666-33333333-|
1: So hysterical, this can't be healthy
2: I can't eat or sleep when you're not with me. Baby, you're the air i breathe
e|-------------------------------------|
B|-----------44444444------------------|
G|--55555555-55555555-7777777777777777-|
D|--66666666-55555555-8888888888888888-|
A|--66666666-33333333-8888888888888888-|
E|--44444444----------6666666666666666-|
This is critical. Yeah.
Chorus:
e|--------------------------------------|
B|-----------44444444-------------------|
G|--55555555-55555555-77777777-33333333-|
D|--66666666-55555555-88888888-55555555-|
A|--66666666-33333333-88888888-55555555-|
E|--44444444----------66666666-33333333-|
Baby, it's so critical (critical) It's so critical (critical, yeah and I like it)
e|-------------------------------|
B|-----------44444444------------|
G|--55555555-55555555-77777777-7~|
D|--66666666-55555555-88888888-8~|
A|--66666666-33333333-88888888-8~|
E|--44444444----------66666666-6~|
Baby, it's so critical (critical)It's so critical (yeah)
So stuck on you.
e|-------------------|
B|-------------------|
G|-----8----8--------|
D|---8----8----------| x2
A|-6----6------------|
E|-------------------|
Tap to rate this tab
 
# A B C D E F G H I J K L M N O P Q R S T U V W X Y Z