Song name
# A B C D E F G H I J K L M N O P Q R S T U V W X Y Z

Jonas Brothers - Drive tab

It's my first time here. Maybe it's not 100% cuz i made it by ear. And Its just a part 
the song.

e|-------------------------------------------------------------------------|
B|-------------------------------------------------------------------------|
G|-------------------------------------------------------------------------|
D|-----0-------2----0-----2-0---------0-------2-----0---2-0----------------|
A|---------------------------2-0---------------------------2-0-------------|
E|-0-0---0-0-0--0-0----0--------3-0-0---0-0-0---0-0---0-------3-0----------|

e| -------------------------------------------------------------------------|
B| -------------------------------------------------------------------------|
G| -------------------------------------------------------------------------|
D| ---------------2-0--------------------------------------2-0--------------|
A|------------------2-0---|x2---------------------------------2-0-----------|
E|-0-0-0-0-0-0-0-------3-0|---3-3-3-3-5-5-5-5-0-0-0-0-0-0-0------3-0-0-0-0-0|
Tap to rate this tab
 
# A B C D E F G H I J K L M N O P Q R S T U V W X Y Z