Song name
# A B C D E F G H I J K L M N O P Q R S T U V W X Y Z

Jonas Brothers - Heart And Soul tab

THE TUNING FOR THIS S0NG IS DROP D

E|----17B--4--2-4-2-------7-7----------9-7-9-7----|
B|---------4B-2-4-2----5B-7-7--7-9-7---9-7-9-7----|
G|---------4--2-4-2------------7-9-7---9-7-9-7----|
D|------------------4----------------9---------9--|
A|------------------------------------------------|
D|------------------------------------------------|

E|---------------10----------------------------------|
B|---------10-13----14-10---------10-----------------|
G|----10-11-----------------10-11--------------------|
D|-----------------------12----------12-12-10--------|
A|--------------------------------------------12-10-8|
D|---------------------------------------------------|
Tap to rate this tab
 
# A B C D E F G H I J K L M N O P Q R S T U V W X Y Z