Song name
# A B C D E F G H I J K L M N O P Q R S T U V W X Y Z

Jonas Brothers - Bb Good tab

okay so none of the other tabs for this song had BOTH solos so i wanted to post them.

here is solo at 0:53

e---------------------------------------------------------|
B------------------------------------------------11~~~~---|
G--6-----4------9-------8-----11-------9------------------|
D----7-----4------11------9------13------11--9------------|
A---------------------------------------------------------|
E---------------------------------------------------------|

here is solo at 1:56

e--14--10-------------------------------------------------|
B----------12--------12-15---10~-9~-----------------------|
G--------------11-14----------------9~-7-9-9~-------------|
D----------------------------------------------9----------|
A---------------------------------------------------------|
E---------------------------------------------------------|

e--------10--------10--------10--------12~----------------|
B--10-12-----10-12-----10-12-----10-12--------------------|
G---------------------------------------------------------|
D---------------------------------------------------------|
A---------------------------------------------------------|
E---------------------------------------------------------|

e--17-17-16-16-------17p16p14-----------19----------------|
B--------------15-15----------17p14h15--------------------|
G---------------------------------------------------------|
D---------------------------------------------------------|
A---------------------------------------------------------|
E---------------------------------------------------------|

~enjoy!                       check out my poor unfortunate souls tab too!
Tap to rate this tab
 
# A B C D E F G H I J K L M N O P Q R S T U V W X Y Z