Jonas Brothers - Heart And Soul tab

First off, make sure you tune your guitar to DADGBe


Also, if you are looking for the solo to this song, dont continue reading this tab, 
i havent figured it out yet but im working on it :P

Anyways, if you notice anything wrong with the tab let me know and ill fix it.

Also,
The lyrics dont match up pefectly to what you play, but they show the general area where 
are supposed to play. It was diffictult trying to match them perfectly..
However, i played along with the song like 100 times, and the notes are right and they 
played the right amount of times, so it should sound good when you learn it, good luck!


for any questions or comments, email me at paramorefanjacob@hotmail.com

Intro:
e------------------------------------------|
B------------------------------------------|
G------------------------------------------| x4
D--9-9-7-8-9-0-1-2-2-0-1-2-0---------------|
A--9-9-7-8-9-0-1-2-2-0-1-2-0---------------|
D--9-9-7-8-9-0-1-2-2-0-1-2-0---------------|


Verse 1:

Gather 'round guys its time to start listening
practice makes perfect but perfects not workin'
e------------------------------------------|
B------------------------------------------|
G------------------------------------------| x2
D--9-9-11-9-9-9-11-9-9-9-11-9-9-9-11-------|
A--9-9-11-9-9-9-11-9-9-9-11-9-9-9-11-------|
D--9-9-9--9-9-9-9--9-9-9-9--9-9-9-9--------|

Theres a lot more to music, than knowing
when your cues gonna be,
e------------------------------------------|
B------------------------------------------|
G------------------------------------------|
D--2-2-4-2-2-2-4-2-2-2-4-2-2-2-4-----------|
A--2-2-4-2-2-2-4-2-2-2-4-2-2-2-4-----------|
D--2-2-2-2-2-2-2-2-2-2-2-2-2-2-2-----------|

e------------------------------------------|
B------------------------------------------|
G------------------------------------------|
D--9-9-11-9-9-9-11-9-9-9-11-9-9-9-11-------|
A--9-9-11-9-9-9-11-9-9-9-11-9-9-9-11-------|
D--9-9-9--9-9-9-9--9-9-9-9--9-9-9-9--------|

you can play all the right notes, but that dont
mean youre moving me
e------------------------------------------|
B------------------------------------------|
G------------------------------------------|
D--2-2-4-2-2-2-4-2-2-2-4-2-2-2-4-----------|
A--2-2-4-2-2-2-4-2-2-2-4-2-2-2-4-----------|
D--2-2-2-2-2-2-2-2-2-2-2-2-2-2-2-----------|

e------------------------------------------|
B------------------------------------------|
G------------------------------------------|
D--9-9-11-9-9-9-11-9-9-9-11-9-9-9-11-------|
A--9-9-11-9-9-9-11-9-9-9-11-9-9-9-11-------|
D--9-9-9--9-9-9-9--9-9-9-9--9-9-9-9--------|

But if you can jump, like David Lee Roth
e------------------------------------------|
B------------------------------------------|
G------------------------------------------|
D--4-4-6-4-4-4-6-4-4-4-6-4-4-4-6-----------|
A--4-4-6-4-4-4-6-4-4-4-6-4-4-4-6-----------|
D--4-4-4-4-4-4-4-4-4-4-4-4-4-4-4-----------|

Or pump your fists like you're Bruce the Boss
e------------------------------------------|
B------------------------------------------|
G------------------------------------------|
D--7-7-9-7-7-7-9-7-7-7-9-7-7-7-9-----------|
A--7-7-9-7-7-7-9-7-7-7-9-7-7-7-9-----------|
D--7-7-7-7-7-7-7-7-7-7-7-7-7-7-7-----------|

if you've got heart and soul, you can rock and roll
e------------------------------------------|
B------------------------------------------|
G------------------------------------------|
D--9-9-------2-3-4-------------------------|
A--9-9-------2-3-4-------------------------|
D--9-9-------2-3-4-------------------------|

e------------------------------------------|
B------------------------------------------|
G------------------------------------------| x2
D--9-9-7-8-9-0-1-2-2-0-1-2-0---------------|
A--9-9-7-8-9-0-1-2-2-0-1-2-0---------------|
D--9-9-7-8-9-0-1-2-2-0-1-2-0---------------|

Verse 2:

Strum it drum it slide aross and run it
this stage is  your home if you learn how to own it
e------------------------------------------|
B------------------------------------------|
G------------------------------------------| x2
D--9-9-11-9-9-9-11-9-9-9-11-9-9-9-11-------|
A--9-9-11-9-9-9-11-9-9-9-11-9-9-9-11-------|
D--9-9-9--9-9-9-9--9-9-9-9--9-9-9-9--------|

like the greats did
you know that you cant
e------------------------------------------|
B------------------------------------------|
G------------------------------------------|
D--2-2-4-2-2-2-4-2-2-2-4-2-2-2-4-----------|
A--2-2-4-2-2-2-4-2-2-2-4-2-2-2-4-----------|
D--2-2-2-2-2-2-2-2-2-2-2-2-2-2-2-----------|

fake it
e------------------------------------------|
B------------------------------------------|
G------------------------------------------|
D--9-9-11-9-9-9-11-9-9-9-11-9-9-9-11-------|
A--9-9-11-9-9-9-11-9-9-9-11-9-9-9-11-------|
D--9-9-9--9-9-9-9--9-9-9-9--9-9-9-9--------|

Youve gotta feel the beat before you can move
e------------------------------------------|
B------------------------------------------|
G------------------------------------------|
D--2-2-4-2-2-2-4-2-2-2-4-2-2-2-4-----------|
A--2-2-4-2-2-2-4-2-2-2-4-2-2-2-4-----------|
D--2-2-2-2-2-2-2-2-2-2-2-2-2-2-2-----------|

even though youre not wearing blue suede shoes
e------------------------------------------|
B------------------------------------------|
G------------------------------------------|
D--9-9-11-9-9-9-11-9-9-9-11-9-9-9-11-------|
A--9-9-11-9-9-9-11-9-9-9-11-9-9-9-11-------|
D--9-9-9--9-9-9-9--9-9-9-9--9-9-9-9--------|

And making mistakes, well that wont matter
e------------------------------------------|
B------------------------------------------|
G------------------------------------------|
D--4-4-6-4-4-4-6-4-4-4-6-4-4-4-6-----------|
A--4-4-6-4-4-4-6-4-4-4-6-4-4-4-6-----------|
D--4-4-4-4-4-4-4-4-4-4-4-4-4-4-4-----------|

if you can swagger like ol' Mick Jagger
e------------------------------------------|
B------------------------------------------|
G------------------------------------------|
D--7-7-9-7-7-7-9-7-7-7-9-7-7-7-9-----------|
A--7-7-9-7-7-7-9-7-7-7-9-7-7-7-9-----------|
D--7-7-7-7-7-7-7-7-7-7-7-7-7-7-7-----------|

if you've got heart and soul, you can rock and roll
e------------------------------------------|
B------------------------------------------|
G------------------------------------------|
D--9-9-------2-3-4-------------------------|
A--9-9-------2-3-4-------------------------|
D--9-9-------2-3-4-------------------------|

e------------------------------------------|
B------------------------------------------|
G------------------------------------------| x2
D--9-9-7-8-9-0-1-2-2-0-1-2-0---------------|
A--9-9-7-8-9-0-1-2-2-0-1-2-0---------------|
D--9-9-7-8-9-0-1-2-2-0-1-2-0---------------|

Solo: Not figured out yet

Background guitar for solo:

e------------------------------------------|
B------------------------------------------|
G------------------------------------------|
D--4-4-6-4-4-4-6-4-4-4-6-4-4-4-6-----------|
A--4-4-6-4-4-4-6-4-4-4-6-4-4-4-6-----------|
D--4-4-4-4-4-4-4-4-4-4-4-4-4-4-4-----------|

e------------------------------------------|
B------------------------------------------|
G------------------------------------------|
D--7-7-9-7-7-7-9-7-7-7-9-7-7-7-9-----------|
A--7-7-9-7-7-7-9-7-7-7-9-7-7-7-9-----------|
D--7-7-7-7-7-7-7-7-7-7-7-7-7-7-7-----------|

e------------------------------------------|
B------------------------------------------|
G------------------------------------------|
D--9-9-11-9-9-9-11-9-9-9-11-9-9-9-11-------|
A--9-9-11-9-9-9-11-9-9-9-11-9-9-9-11-------|
D--9-9-9--9-9-9-9--9-9-9-9--9-9-9-9--------|


e------------------------------------------|
B------------------------------------------|
G------------------------------------------|
D--0-0-2-0-0-0-2-0-0-0-2-0-0-0-2-----------|
A--0-0-2-0-0-0-2-0-0-0-2-0-0-0-2-----------|
D--0-0-0-0-0-0-0-0-0-0-0-0-0-0-0-----------|

After solo:
If you live and die
e------------------------------------------|
B------------------------------------------|
G------------------------------------------|
D--2---2-2-2-2-2-2-------------------------|
A--2---2-2-2-2-2-2-------------------------|
D--2---2-2-2-2-2-2-------------------------|

for the music inside
e------------------------------------------|
B------------------------------------------|
G------------------------------------------|
D--4---4-4-4-4-4-4-------------------------|
A--4---4-4-4-4-4-4-------------------------|
D--4---4-4-4-4-4-4-------------------------|

if the 1-4-5 never
e------------------------------------------|
B------------------------------------------|
G------------------------------------------|
D--5---5-5-5-5-5-5-------------------------|
A--5---5-5-5-5-5-5-------------------------|
D--5---5-5-5-5-5-5-------------------------|

gets old, then you can rock and roll
e------------------------------------------|
B------------------------------------------|
G------------------------------------------|
D--7---7-7-7-7-7-7-------------------------|
A--7---7-7-7-7-7-7-------------------------|
D--7---7-7-7-7-7-7-------------------------|

...rock and roll
e------------------------------------------|
B------------------------------------------|
G------------------------------------------| x2
D--9-9-7-8-9-0-1-2-2-0-1-2-0---------------|
A--9-9-7-8-9-0-1-2-2-0-1-2-0---------------|
D--9-9-7-8-9-0-1-2-2-0-1-2-0---------------|

Bridge:
Palm mute this part

all right now lets take it low, now i need the spotlight
to hit me right here, as the crowd starts the cheer,
i need that fan to blow right through my rockstar hair,
right here.
e------------------------------------------|
B------------------------------------------|
G------------------------------------------| x4
D--9-9-7-8-9-0-1-2-2-0-1-2-0---------------|
A--9-9-7-8-9-0-1-2-2-0-1-2-0---------------|
D--9-9-7-8-9-0-1-2-2-0-1-2-0---------------|

If you can scream like Axel Rose
e------------------------------------------|
B------------------------------------------|
G------------------------------------------|
D--4-4-6-4-4-4-6-4-4-4-6-4-4-4-6-----------|
A--4-4-6-4-4-4-6-4-4-4-6-4-4-4-6-----------|
D--4-4-4-4-4-4-4-4-4-4-4-4-4-4-4-----------|

or sing liek Xtina show after show
e------------------------------------------|
B------------------------------------------|
G------------------------------------------|
D--7-7-9-7-7-7-9-7-7-7-9-7-7-7-9-----------|
A--7-7-9-7-7-7-9-7-7-7-9-7-7-7-9-----------|
D--7-7-7-7-7-7-7-7-7-7-7-7-7-7-7-----------|

Stop palm muting from here on

if you've got heart and soul, you can rock and roll
e------------------------------------------|
B------------------------------------------|
G------------------------------------------|
D--9-9-------2-3-4-------------------------|
A--9-9-------2-3-4-------------------------|
D--9-9-------2-3-4-------------------------|

e------------------------------------------|
B------------------------------------------|
G------------------------------------------|
D--9-9-7-8-9-0-1-2-2-0-1-2-0---------------|
A--9-9-7-8-9-0-1-2-2-0-1-2-0---------------|
D--9-9-7-8-9-0-1-2-2-0-1-2-0---------------|

if you've got heart and soul, you can rock and roll
e------------------------------------------|
B------------------------------------------|
G------------------------------------------|
D--9-9-------2-3-4-------------------------|
A--9-9-------2-3-4-------------------------|
D--9-9-------2-3-4-------------------------|

e------------------------------------------|
B------------------------------------------|
G------------------------------------------| x4
D--9-9-7-8-9-0-1-2-2-0-1-2-0---------------|
A--9-9-7-8-9-0-1-2-2-0-1-2-0---------------|
D--9-9-7-8-9-0-1-2-2-0-1-2-0---------------|

once again,
for any questions or comments, email me at paramorefanjacob@hotmail.com
Tap to rate this tab
 
# A B C D E F G H I J K L M N O P Q R S T U V W X Y Z