Song name
# A B C D E F G H I J K L M N O P Q R S T U V W X Y Z

Jonas Brothers - Feelin Alive tab

Since no one else has tried, I will.  This is my first tab, don't be harsh.:)


Intro:

e|---------|
B|---------|
G|---------| x2; hold for 16 counts.
D|--9------|
A|--9------|
E|--7------|


Verse 1:

e|------------------------------------------|
B|------------------------------------------|
G|------------99999999--99999999------------| x2
D|--99999999--99999999--99999999--999999999-|
A|--99999999--77777777--66666666--999999999-|
E|--77777777----------------------777777777-|


Pre-chorus:

e|----------------------------------|
B|----------------------------------|
G|----------------------------11----|
D|--9------6666--4444--9------11-8x-|
A|--9-24x--6666--4444--9-24x--9-----|
E|--7------4444--2222--7------------|


Chorus:

e|-------------------------------------------------------------------------|
B|-------------------------------------------------------------------------|
G|------------99999999--9-----66666666------------99999999--9--------------|
D|--99999999--99999999--9-8x--66666666--99999999--99999999--9-8x--99999999-|
A|--99999999--77777777--6-----44444444--99999999--77777777--6-----99999999-|
E|--77777777----------------------------77777777------------------77777777-|


Verse 2:

e|------------------------------------------|
B|------------------------------------------|
G|------------99999999--99999999------------| x2
D|--99999999--99999999--99999999--999999999-|
A|--99999999--77777777--66666666--999999999-|
E|--77777777----------------------777777777-|


Pre-chorus:

e|----------------------------------|
B|----------------------------------|
G|----------------------------11----|
D|--9------6666--4444--9------11-8x-|
A|--9-24x--6666--4444--9-24x--9-----|
E|--7------4444--2222--7------------|


Chorus:

e|-------------------------------------------------------------------------|
B|-------------------------------------------------------------------------|
G|------------99999999--9-----66666666------------99999999--9--------------|
D|--99999999--99999999--9-8x--66666666--99999999--99999999--9-8x--99999999-|
A|--99999999--77777777--6-----44444444--99999999--77777777--6-----99999999-|
E|--77777777----------------------------77777777------------------77777777-|


Bridge: just strum once.

e|----------|          e|-------|
B|----------|          B|-------|
G|-----9--9-| x3 then: G|-------|
D|--9--9--9-|          D|-9--11-|
A|--9--7--5-|          A|-9--11-|
E|--7-------|          E|-7--9--|


Chorus: x3

e|-------------------------------------------------------------------------|
B|-------------------------------------------------------------------------|
G|------------99999999--9-----66666666------------99999999--9--------------|
D|--99999999--99999999--9-8x--66666666--99999999--99999999--9-8x--99999999-|
A|--99999999--77777777--6-----44444444--99999999--77777777--6-----99999999-|
E|--77777777----------------------------77777777------------------77777777-|


Nick's part just strum:

e|---------|
B|---------|
G|---------|
D|--9------|
A|--9------|
E|--7------|



Thanks, hope I helped a little!:)
Tap to rate this tab
 
# A B C D E F G H I J K L M N O P Q R S T U V W X Y Z