Jonas Brothers - Invisible tab

Intro:
e-----------------------------------|
B----------------(listen for--------|
G-------------7---strum pattern)----|  x3
D----5--7--9--7---------------------|
A----5--7--9--5---------------------|
E----3--5--7------------------------|

e-----------------------------------|
B--------------(listen for----------|
G----9--7-------strum pattern)------|
D----9--7--7/-----------------------|
A----7--5--7/-----------------------|
E----------5/-----------------------|

Verse 1: 0:17
e-----------------------------------|
B-----------------------------------|
G-----------------------------------|
D----9------5-----------------------|  x3
A----9-x8---5-x8--------------------|
E----7------3-----------------------|

0:30
e------------------------------------------|
B------------------------------------------|
G---------7--------------------------------|
D---------7------7----5------------7-------|
A---------5------7----5------------7-------|
E----------------5----3------------5-------|
   and my heart slows dowm  so now i'm..

Chorus: 0:36
e-----------------------------------|
B----------------(listen for--------|
G-------------7---strum pattern)----|  x3
D----5--7--9--7---------------------|
A----5--7--9--5---------------------|
E----3--5--7------------------------|

e-----------------------------------|     the chorus has the same strum
B--------------(listen for----------|     pattern as the intro.
G----9--7-------strum pattern)------|
D----9--7--7/-----------------------|
A----7--5--7/-----------------------|
E----------5/-----------------------|

0:53
e-----------------------------------|
B-----------------------------------|
G-----------------------------------|
D----9------5------9-----5/---------|
A----9-x8---5-x8---9-x8--5/---------|
E----7------3------7-----3/---------|

Verse 2: 1:02
e-----------------------------------|
B-----------------------------------|
G-----------------------------------|
D----9------5-----------------------|  x3
A----9-x8---5-x8--------------------|
E----7------3-----------------------|

e----------------------------------------|
B----------------------------------------|
G--------7-------------------------------|
D--------7-x4---7------5---------7-------|
A--------5------7-x4---5-x8------7-------|
E---------------5------3---------5-------|
   i can see    your   eyes  so I'll, I'll keep on

Chorus: 1:21
e-----------------------------------|
B----------------(listen for--------|
G-------------7---strum pattern)----|  x3
D----5--7--9--7---------------------|
A----5--7--9--5---------------------|
E----3--5--7------------------------|

e-----------------------------------|     the chorus has the same strum
B--------------(listen for----------|     pattern as the intro.
G----9--7-------strum pattern)------|
D----9--7---------------------------|
A----7--5---------------------------|
E-----------------------------------|

Bridge: 1:37
e---------------------------------------------|
B---------------------------------------------|
G---9-----------7-----------9-----------------|
D---9-x8--9-----7-x8--7-----9-x8-9-------7/---|
A---7-----9-x8--5-----7-x8--7----9-x16---7/---|
E---------7-----------5----------7-------5/---|

1:55
e-----------------------------------|
B-----------------------------------|
G-----------------------------------|
D----9-----7------------------------|
A----9-x8--7-x8---------------------|
E----7-----5------------------------|

Chorus: 1:59
e-----------------------------------|
B----------------(listen for--------|
G-------------7---strum pattern)----|  x3
D----5--7--9--7---------------------|
A----5--7--9--5---------------------|
E----3--5--7------------------------|

e-----------------------------------|     the chorus has the same strum
B--------------(listen for----------|     pattern as the intro.
G----9--7-------strum pattern)------|
D----9--7--7------------------------|
A----7--5--7------------------------|
E----------5------------------------|

e-----------------------------------|
B----------------(listen for--------|
G-------------7---strum pattern)----|  x3
D----5--7--9--7---------------------|
A----5--7--9--5---------------------|
E----3--5--7------------------------|

e-----------------------------------|
B--------------(listen for----------|
G----9--7-------strum pattern)------|  x2
D----9--7--7------------------------|
A----7--5--7------------------------|
E----------5------------------------|

Outro: 2:37
e-----------------------------------|
B-----------------------------------|
G-----------------------------------|
D----9-----7------------------------|
A----9-x8--7-x8---------------------|
E----7-----5------------------------|

e-----------------------------------|
B-----------------------------------|
G----------7------------------------|
D----------7-----7-----5------------|
A----------5-----7-----5------------|
E----------------5-----3------------|
    and my heart slows down

  ENJOY!!!!
Tap to rate this tab
 
# A B C D E F G H I J K L M N O P Q R S T U V W X Y Z