Jonas Brothers - Introducing Me tab

These are the chords for the song from Camp Rock 2 called "Introducing Me"
Note: This is only for the preview of the song because the full version isn't out yet. 
can see the preview here. http://www.youtube.com/watch?v=5tTd5UbVSGk

Verse:
I'm good at wasting time, I think lyrics need to rhyme...
e|-------------------------|
B|-------------------------|
G|-------------------------|
D|-9-x8-8----6----2--------| 2x
A|-9----9-x8-6-x8-2-x8-----|
E|-7----6----4----0--------|

Pre Verse:
And I, I really like it when the moon looks like a toe nail..
e|-------------------------|
B|-------------------------|
G|-6----8----9------9~-----|
D|-6-x8-8----9------9~-----|
A|-4----6-x8-7-x13--7~-----|
E|-------------------------|

Chorus:
If you wanna, here it goes, gonna tell you this..
e|-------------------------|
B|-------------------------|
G|-------------------------|
D|-9-x8-8----6----2--------| 2x
A|-9----9-x8-6-x8-2-x8-----|
E|-7----6----4----0--------|

For your perusing..
e|---------------------------|
B|---------------------------|
G|-6----8----9-----11---11~--|
D|-6-x8-8----9-----11---11~--|
A|-4----6-x8-7-x8--9-x4-9-~--|
E|---------------------------|

Doo Doo, Doo Doo..
e|--------------------------------|
B|--------------------------------|
G|---------------------11---------|
D|-9-x8-8----6----2----11-----9~--|
A|-9----9-x8-6-x8-2-x4-9--x4--9~--|
E|-7----6----4----0-----------7~--|

Thats it! Tabbed By Emo Brat. I think its correct but if there is a mistake then send me 
email at emobrat@live.com
Thank You!
Tap to rate this tab
 
# A B C D E F G H I J K L M N O P Q R S T U V W X Y Z