Jonas Brothers - Turn Right tab

-------------------------------------------------------------------------------
			     TURN RIGHT - Jonas Brothers
-------------------------------------------------------------------------------
Tabbed by: kasiajonas
Email: popolsku8@gmail.com

Tuning: Standard

Intro: x2 Verse: x4
e|-----------------------------3---------------------------------------------|
B|-------3--------------3---------3------------------------------------------|
G|----0---------------2------------------------------------------------------|
D|------------------0-------2------------------------------------------------|
A|--2------3-----------------------------------------------------------------|
E|---------------------------------------------------------------------------|

Chorus: x2
e|-----------------------------3---------------------------------------------|
B|--------3----------------3---------3---------------------------------------|
G|-----0-----3----------2----------------------------------------------------|
D|-------------------0------------2------------------------------------------|
A|--2------------------------------------------------------------------------|
E|---------------------------------------------------------------------------|

e|--------------------------------------------3------------------------------|
B|--------3------------------3--------------------3--------------------------|
G|-----0------------------0---------------0----------------------------------|
D|---------------------------------------------------------------------------|
A|--2--------3------------------------3--------------------------------------|
E|--------------------3----------2-------------------------------------------|

Verse: x6
e|-----------------------------3---------------------------------------------|
B|-------3--------------3---------3------------------------------------------|
G|----0---------------2------------------------------------------------------|
D|------------------0-------2------------------------------------------------|
A|--2------3-----------------------------------------------------------------|
E|---------------------------------------------------------------------------|

Chorus: x2
e|-----------------------------3---------------------------------------------|
B|--------3----------------3---------3---------------------------------------|
G|-----0-----3----------2----------------------------------------------------|
D|-------------------0------------2------------------------------------------|
A|--2------------------------------------------------------------------------|
E|---------------------------------------------------------------------------|

e|--------------------------------------------3------------------------------|
B|--------3------------------3--------------------3--------------------------|
G|-----0------------------0---------------0----------------------------------|
D|---------------------------------------------------------------------------|
A|--2--------3------------------------3--------------------------------------|
E|--------------------3----------2-------------------------------------------|

Bridge:

  D   Cadd9 G
I did all I could

  D    Cadd9 G 
I gave everything
        Em     D       Cadd9
But you had to go your way
         Em       D       Cadd9
And that road was not for me


Chorus: x2
e|-----------------------------3---------------------------------------------|
B|--------3----------------3---------3---------------------------------------|
G|-----0-----3----------2----------------------------------------------------|
D|-------------------0------------2------------------------------------------|
A|--2------------------------------------------------------------------------|
E|---------------------------------------------------------------------------|

e|--------------------------------------------3------------------------------|
B|--------3------------------3--------------------3--------------------------|
G|-----0------------------0---------------0----------------------------------|
D|---------------------------------------------------------------------------|
A|--2--------3------------------------3--------------------------------------|
E|--------------------3----------2-------------------------------------------|


Outro: x2

e|-----------------------------3---------------------------------------------|
B|-------3--------------3---------3------------------------------------------|
G|----0---------------2------------------------------------------------------|
D|------------------0-------2------------------------------------------------|
A|--2------3-----------------------------------------------------------------|
E|---------------------------------------------------------------------------|
Tap to rate this tab
 
# A B C D E F G H I J K L M N O P Q R S T U V W X Y Z