Song name
# A B C D E F G H I J K L M N O P Q R S T U V W X Y Z

Jonas Brothers - Year 3000 tab

-----------------------------------------------------------------------------
			   YEAR 3000 Acoustic - Jonas Brothers
-----------------------------------------------------------------------------
Tabbed by: ilex3
[[[[NOTE: NOT QUITE SURE IF THEY PLAY IT ELECTRIC LIKE THIS BUT THEY PLAY IT LIKE 
THIS ACOUSTICLY.]]]]

Tuning: EADGBe

Guitar 1: Nick's Guitar
Guitar 2: Kevin's Guitar


INTRO:[Kevin starts slightly after Nick. Strumming is kinda weird but if you 
listen to their acoustic videos it's pretty easy to figure out.]

Guitar 1:
e|-------------------------|
B|-------------------------|
G|------1111-99--9-11------| x2
D|--99--1111-99--9-11------|
A|--99--9 9--77--7-9-------|
E|--77---------------------|

Guitar 2:
e|-------------------------|
B|----77---77--7799997-----|
G|----88---88--8888888-----| x2
D|-------------------------|
A|----99---99--9999999-----|
E|-------------------------|

VERSE 1:

Guitar 1
e|-------------------------|
B|-------------------------|
G|------1111-99--9-11------| x3
D|--99--1111-99--9-11------|
A|--99--9 9--77--7-9-------|
E|--77---------------------|

Guitar 2:
e|-------------------------|
B|-------------------------|
G|--44-------11--1---------| x3
D|--44--44---11--1-4-------|
A|--22--44---22--2-4-------|
E|------22---------2-------|

PRE-CHORUS:

Guitar 1:
e|--4~-----2~--------------|
B|--4~-----2~--------------|
G|--5~-----3~-----1~-------|
D|--6~-----4~-----2~-------|
A|--6~-----4~-----2~-------|
E|--4~-----2~--------------|

Guitar 2:
e|-------------------------|
B|--444444/222222----------|
G|--555555/333333/11111111-|
D|--666666/444444/22222222-|
A|--666666/444444/22222222-|
E|-------------------------|

CHORUS:

Guitar 1:
e|-------------------------|
B|-------------------------|
G|------1111-99--9-11------| x3
D|--99--1111-99--9-11------|
A|--99--9 9--77--7-9-------|
E|--77---------------------|

Guitar 2:
e|-------------------------|
B|----77---77--7799997-----|
G|----88---88--8888888-----| x3
D|-------------------------|
A|----99---99--9999999-----|
E|-------------------------|

VERSE 2:

Guitar 1
e|-------------------------|
B|-------------------------|
G|------1111-99--9-11------| x3
D|--99--1111-99--9-11------|
A|--99--9 9--77--7-9-------|
E|--77---------------------|

Guitar 2:
e|-------------------------|
B|-------------------------|
G|--44-------11--1---------| x3
D|--44--44---11--1-4-------|
A|--22--44---22--2-4-------|
E|------22---------2-------|

PRE-CHORUS:

Guitar 1:
e|--4~-----2~--------------|
B|--4~-----2~--------------|
G|--5~-----3~-----1~-------|
D|--6~-----4~-----2~-------|
A|--6~-----4~-----2~-------|
E|--4~-----2~--------------|

Guitar 2:
e|-------------------------|
B|--444444/222222----------|
G|--555555/333333/11111111-|
D|--666666/444444/22222222-|
A|--666666/444444/22222222-|
E|-------------------------|

CHORUS:

Guitar 1:
e|-------------------------|
B|-------------------------|
G|------1111-99--9-11------| x3
D|--99--1111-99--9-11------|
A|--99--9 9--77--7-9-------|
E|--77---------------------|

Guitar 2:
e|-------------------------|
B|----77---77--7799997-----|
G|----88---88--8888888-----| x3
D|-------------------------|
A|----99---99--9999999-----|
E|-------------------------|

BRIDGE:

Guitar 1&2:
e|-------------------------|
B|-------------------------|
G|------1111-99--9-11------| x3
D|--99--1111-99--9-11------|
A|--99--9 9--77--7-9-------|
E|--77---------------------|

e|-----------------------------|
B|-----------------------------|
G|------1111-99--9999/11111111-| x1
D|--99--1111-99--9999/11111111-|
A|--99--9 9--77--7777/9-9-9-9--|
E|--77-------------------------|

PRE-CHORUS:

Guitar 1:
e|--4~-----2~--------------|
B|--4~-----2~--------------|
G|--5~-----3~-----1~-------|
D|--6~-----4~-----2~-------|
A|--6~-----4~-----2~-------|
E|--4~-----2~--------------|

Guitar 2:
e|-------------------------|
B|--444444/222222----------|
G|--555555/333333/11111111-|
D|--666666/444444/22222222-|
A|--666666/444444/22222222-|
E|-------------------------|

CHORUS:

Guitar 1:
e|-------------------------|
B|-------------------------|
G|------1111-99--9-11------| x1
D|--99--1111-99--9-11------|
A|--99--9 9--77--7-9-------|
E|--77---------------------|
    ..  . .  ..  . .    
Guitar 2:
e|-------------------------|
B|----77---77--7799997-----|
G|----88---88--8888888-----| x1
D|-------------------------|
A|----99---99--9999999-----|
E|-------------------------|
      ..   ..  .......

CHORUS: [Fade out]

Guitar 1:
e|-------------------------|
B|-------------------------|
G|------1111-99--9-11------|
D|--99--1111-99--9-11------|
A|--99--9 9--77--7-9-------|
E|--77---------------------|

Guitar 2:
e|-------------------------|
B|----77---77--7799997-----|
G|----88---88--8888888-----|
D|-------------------------|
A|----99---99--9999999-----|
E|-------------------------|

************************************

| /   slide
| ~   let ring
| .   Mute note

************************************
Tap to rate this tab
 
# A B C D E F G H I J K L M N O P Q R S T U V W X Y Z