Jonas Brothers - Goodnight And Goodbye tab

Intro:  
Guitar 1 (Kevinís guitar): Strumming kinda dd dud dud dud  each chord x8 and the last onex16
e---------------------0--I
b------------------------I
G-------7---5---4---1----I
D---7---7---5---4---2----I
A---7---5---3---2---2----I
E---5-----------------0--I
Guitar 2(Nickís guitar): Plucking each one four times and the last one x1
e-----------------------------------------0------I
b-------5--------6--------5--------3-------------I
G-------5--------7--------5--------4-------------I
D------------------------------------------------I
A-----------5---------3-------2------------------I
E---5--------------------------------------0-----I

Verse same as the intro. X2
Chorus:
First part : F and E x4 and A x8
Second part: Each chord x1 and E x16
e---------0-----------I                I------------------0----I
b---------0-----------I                I------------------0----I
G---------1-----------I  x2            I--7---5-----------1----I
D-----3---2-------7---I                I--7---5---5---7---2----I
A-----3---2-------7---I                I--5---3---5---7---2----I
E-----1---0-------5ó--I                I----------3---5---0----I

Interlude:  During it another guitar plays the intro chords.

e|-----------------------------------------------|
B|-----------------------------------------------|
G|-9~~-7-9-10----10-9~---------------------------|
D|-------------------------------10-10/12-10-9~--|
A|-----------------------------------------------|
E|-----------------------------------------------|

Verse,x2
Chorus: Same as the first one
Interlude same as before.
Bridge: Each chord is played only once except the first E.
E-----------------------------------------------------I
B-----------------------------------------------------I
G---7---5---------------9---9/10--9/10--9/10-----9----I
D---7---5---5---6---7---9---9/10--9/10--9/10-----9----I
A---5---3---5---6---7---7---7/8---7/8---7/8------7----I
E-----------3---4---5---------------------------------I
Chorus: same as before. And then And continues like this:
E------------------------I
B------------------------I
G---7---5----------------I
D---7---5---5---6---7----I
A---5---3---5---6---7----I
E-----------3---4---5----I
Then play E X16.
It ends on A.
Tap to rate this tab
 
# A B C D E F G H I J K L M N O P Q R S T U V W X Y Z