Song name
# A B C D E F G H I J K L M N O P Q R S T U V W X Y Z

Jonas Brothers - Hello Beautiful chords

Highlighted       Show chord diagrams
-------------------------------------------------------------------------------
			     HELLO BEAUTIFUL - Jonas Brothers
-------------------------------------------------------------------------------
Tabbed by: kasiajonas
Email: popolsku8@gmail.com

Tuning: Standard

Chords used:

   E5 E5/D# C#m A E F# B Bsus4/D# G#/C F#/A#
e|-x----0----4--0-0-2--2----0------x-----x---|
B|-x----0----5--2-0-2--4----0------9-----7---|
G|-x----4----6--2-1-3--4----4------8-----6---|
D|-2----1----6--2-2-4--4----4------6-----4---|
A|-2----x----4--0-2-4--2----6------x-----x---|
E|-0----x----x--x-0-2--x----x------8-----6---|



E5
 Hello beautiful
How's it goin'
            E5/D#
I hear it's wonderful in California
              C#m  
I've been missin' you
         A
It's true 


       E5  Bsus4/D#
But tonight
           A
I'm gonna fly
        E5  Bsus4/D#     A
Yeah tonight I'm gonna fly
      C#m           G#/C   
Cause I could comb across the world
    E              F#/A#    F#       
See everything and never be satisfied
     A        B        E5
If I couldn't see those eyes


Hello beautiful
It's been a long time
                E5/D#
Since my phone's rung
And you've been on that line
              C#m 
I've been missing you
         A
It's true


       E5  Bsus4/D#
But tonight
           A
I'm gonna fly
        E5  Bsus4/D#     A
Yeah tonight I'm gonna fly
      C#m           G#/C   
Cause I could comb across the world
    E              F#/A#    F#       
See everything and never be satisfied
     A        B         E
If I couldn't see those eyes
Tap to rate this tab
# A B C D E F G H I J K L M N O P Q R S T U V W X Y Z