Song name
# A B C D E F G H I J K L M N O P Q R S T U V W X Y Z

Jonas Brothers - Tell Me Why tab

Verse: 
|-----------------------------------------|
|-3----3----------------------------------|
|-----------3---------5----3---------5----|
|-----------3----3----5----3----3----5----|
|-----------1----3----3----1----3----3----|
|----------------1--------------1---------|
Chorus:
|---------------------------------------|
|-5---3---3---1---5---3---3---1----5----|
|-7---5---5---3---7---5---5---3----7----|
|-7---5---5---3---7---5---5---3----7----|
|-5---3---3---1---5---3---3---1----5----|
|---------------------------------------|
Solo:
|-----------------------------------------------------------------|
|-6----------------------------8--------------8~--8~--8~----------|
|---9-7-5--5-7-5-7-10-9-7-5------9-7-5--5-7-5-10~-10~-10~-9-9-7---|
|-----------------------------------------------------------------|
|---------------------------5-------------------------------------|
|-----------------------------------------------------------------|
Verse:
|-------------------------------|
|-------------------------------|
|-3---------5----3---------5----|
|-3----3----5----3----3----5----|
|-1----3----3----1----3----3----|
|------1--------------1---------|
Chorus:
|---------------------------------|
|-5---3---3---1---5---3---3---1---|
|-7---5---5---3---7---5---5---3---|
|-7---5---5---3---7---5---5---3---|
|-5---3---3---1---5---3---3---1---|
|---------------------------------|
Stick:
|--------------------------------------------------|
|--------------------------------------------------|
|---7-----5-----5-----3------7-----5-----5-----3---|
|-----7-----5-----5-----3------7-----5-----5-----3-|
|-5-----3-----3-----1------5-----3-----3-----1-----|
|--------------------------------------------------|
Chorus:
|---------------------------------|
|-5---3---3---1---5---3---3---1---|
|-7---5---5---3---7---5---5---3---|
|-7---5---5---3---7---5---5---3---|
|-5---3---3---1---5---3---3---1---|
|---------------------------------|
Tap to rate this tab
# A B C D E F G H I J K L M N O P Q R S T U V W X Y Z