Song name
# A B C D E F G H I J K L M N O P Q R S T U V W X Y Z

Jonas Brothers - Pom Poms tab

Hey this i my first tab... I'm not 100% but i sounds correct for me. I tabbed it
by watching this video http://www.youtube.com/watch?v=J27NwmGore4  :)


e-----------------------------------------------|
b-----------------------------------------------|
g-----------------------------------------------|   2x
d-------------4----------------------------4----|
a-----------66-6------------------------66--6---|
E--44--7-4------------44--7-4-7/9\7-------------|


e----------------------------------------------------|
b--------------------------------------4-------------|
g----------------------------------------6-4-3-------|
d----------------4-----------------------------------|
a-------------66--6----------------------------------|
E----44-7-4------------44-7-4--7/9\7---------------4-|


These chords are played with some kind of reggae rythm and are played the whole song out! :)

G#m,  B,        F#,     C#

riff:

More to love when your hands are free
Baby put your pom poms down for me
Come on shake it up 123
Baby put your pom poms down for me

Yeah they come from miles away
Just to see how you get down
Feels like an earthquake
Every time you come around
You hear em saying yeah (yeah)
Every time feels like a revival (glory)
So get up, right now
Were coming for the title

(riff
More to love when your hands are free
Baby put your pom poms down for me
Come on shake it up 123
Baby put your pom poms down for me
When you move I fall to my knees
Baby put your pom poms down for me
Come on shake it up 543
Baby put your pom poms down for me

I want you on my team
Want you like kid just wants a milkshake
And I wont let it go to waste if I get a taste
Im gonna drink the whole thing
You hear em saying yeah (yeah)
Every time feels like a revival (glory)
So get up right now
Were coming for the title

Riff

Bridge
Ladies to the left, fellas to the right
If you wanna see me put my pom poms down
Then sing it to me baby sing it right now
Na na na na na na, yeah yeah (repeat 1x)

Riff

Enjoy :)
Tap to rate this tab
# A B C D E F G H I J K L M N O P Q R S T U V W X Y Z