Song name
# A B C D E F G H I J K L M N O P Q R S T U V W X Y Z

Jonas Brothers - First Time tab

hey guys i checked and there's no one at the moment that uploaded the intro to first 
time so i tabbed it in a few minutes by ear and its very easy and catchy! i recommend 
playing it on electric guitar with distortion.
this intro is for the live version of this song in album "V" and i hope you'll like it! :)

Guitar 2:

e|----------------|----------------|----------------|----------------|
B|-/8--7-5-3------|-/8--7-5-3------|----------------|----------------|
G|----------------|------------4---|----------------|----------------|
D|----------------|----------------|----------------|----------------|
A|----------------|----------------|----------------|----------------|
E|----------------|----------------|----------------|----------------|

Guitar 1: (i think that maybe this part is played by keyboard)

e|----------------|----------------|----------------|----------------|
B|----------------|----------------|----------------|----------------|
G|----------------|----------------|----------------|----------------|
D|-88-6-88--------|-88-6-88--------|----------------|----------------|
A|----------------|----------------|----------------|----------------|
E|----------------|----------------|----------------|----------------|

guitar 3:

e|----------------|----------------|----------------|----------------|
B|----------------|----------------|----------------|----------------|
G|----------------|----------------|----------------|----------------|
D|----------------|----------------|----------------|----------------|
A|----------------|----------------|----------------|----------------|
E|-8888-8h10------|-10-10-10-10----|-000000000------|----------------|

for the verses and chorus i saw here a fine tab so just look around its easy

just listen to the song for the rhytm and you'll be fine i believe this tab is 
correct... and please rate 5 stars!!!
Tap to rate this tab
# A B C D E F G H I J K L M N O P Q R S T U V W X Y Z