Song name
# A B C D E F G H I J K L M N O P Q R S T U V W X Y Z

Jonas Brothers - Goodnight And Goodbye tab

Highlighted       Show chord diagrams
Intro

Am (one string at a time)
e--2/3/2/0------------------------------------------|
b---------3/2---------------------------------------|
g---------------------------------------------------|
d---------------------------------------------------|
a---------------------------------------------------|
E---------------------------------------------------|

Verse 1: (finger plucking)
e--0-0-0-0-1-1-1-1-0-0-0-0-0--0---------------------| x2
b---------------------------------------------------|
g---------------------------------------------------|
d---------------------------------------------------|
a-0-0-0-0-0-0-0-0-3-3-3-3-2-22----------------------|
E---------------------------------------------------|

Chorus:
Dm      Am
Hold on tight,
Am
it's a roller coaster ride we're on so,
Dm      Am
say goodbye,
Am
'cause we won't be back again,
Dm     Am
up and down,
Am     C      Am
you're all around.
        Am
Say goodnight,

and good bye.

Verse 2 (finger plucking, same as Verse 1)
  Am       Dm      C          E
e--0-0-0-0-1-1-1-1-0-0-0-0-0--0---------------------| x2
b---------------------------------------------------|
g---------------------------------------------------|
d---------------------------------------------------|
a-0-0-0-0-0-0-0-0-3-3-3-3-2-22----------------------|
E---------------------------------------------------|

Chorus:
Dm      Am
Hold on tight,
Am
it's a roller coaster ride we're on so,
Dm      Am
say goodbye,
Am
'cause we won't be back again,
Dm     Am
up and down,
Am     C      Am
you're all around.
        Am
Say goodnight,

and good bye.

Bridge:
Dm
Well girl,
    Am
I'm sorry for,
C           Am
disappointing you,
        Am
but I'm done,
           Am     C        Am
with being up and down and pushed around,

no more.

Chorus x2:
Dm      Am
Hold on tight,
Am
it's a roller coaster ride we're on so,
Dm      Am
say goodbye,
Am
'cause we won't be back again,
Dm     Am
up and down,
Am     C      Am
you're all around.
        Am
Say goodnight,

and good bye.
Tap to rate this tab
# A B C D E F G H I J K L M N O P Q R S T U V W X Y Z