Song name
# A B C D E F G H I J K L M N O P Q R S T U V W X Y Z

Jonas Brothers - When You Look Me In The Eyes tab

Jonas Brothers
When You Look Me In The Eyes
2007 Hollywood REcords
Submitted by: paramore_fans@yahoo.com

Key: D

Tuning: Drop D

Intro:

Part 1: Harmonics

Guitar 2: * means Harmonics
e|-------------------------|
B|-------------------------|
G|-------------5*----------|
D|-------5*-------4*-------| x2
A|----5*----5*-------5*----|
D|-5*-------------------5*-|


Part 2: Distorted
Guitar 1:
e|------------------|
B|------------------|
G|------------------|
D|-0-0-0-2--4-4-4-5-| x2
A|-0-0-0-2--4-4-4-5-|
D|-0-0-0-2--4-4-4-5-|

Guitar 2:
e|----------------------------0-------|
B|-2---3----2---3----2---3------3-2---|
G|---2---0----2---2----2---0--------2-|
D|------------------------------------|
A|------------------------------------|
D|------------------------------------|


Verses:

Guitar 1:
e|--------------------|
B|----10--12-10----10-|
G|-7---9--11--9--7--9-|
D|-7---7---9--7--7--7-|
A|-5---7---9--7--5--7-|
D|-5---7---9--7--5--7-|

Guitar 2: Do the harmonics Intro Part 1


Choruses:
e|--------------------|
B|--------------------|
G|--------------------|
D|-12--11--9--7--5--7-|
A|-12--12--9--7--5--7-| x2
D|-12--11--9--7--5--7-|


Bridge:
e|---------------------------------|
B|---------------------------------|
G|---------------------------------|
D|-9---8---0---2-0-2-0-2-0-2--5--7-|
A|-9---9---0---2-0-2-0-2-0-2--5--7-|
D|-9---8---0---2-0-2-0-2-0-2--5--7-|

End on D
Tap to rate this tab
 
# A B C D E F G H I J K L M N O P Q R S T U V W X Y Z