Song name
# A B C D E F G H I J K L M N O P Q R S T U V W X Y Z

Jonas G And The Fantastic 3 - I Think Its A Maybe tab

Jonas G. and The Fantastic Three
"I Think It's a Maybe"
Album/EP: Love Can't Save You (Only My Powers Will)
Awesome Michigan Powerpop band from Hazel Park, MI!
Check them out!
Facebook: http://www.facebook.com/jonasgandthefantasticthree
Myspace: http://www.myspace.com/jg3_
Purevolume: http://www.purevolume.com/jonasgandthefantasticthree
Soundcloud: http://soundcloud.com/metromin

Any questions or corrections email me: alexskaterb@yahoo.com


Intro (2 Times):
e-----------------------|
B-----------------------|
G--3~~~~--10~~~~--8~~~~-|
D--3~~~~--10~~~~--8~~~~-|
A--1~~~~--8-~~~~--6~~~~-|
E-----------------------| 

Play each chord 8 times:
e-----------------------|
B-----------------------|
G-3-----5-----7-----8---|
D-3-----5-----7-----8---|
A-1-----3-----5-----6---|
E-----------------------|

Lead Synth Part (can play up 12 frets for higher pitched parts):
e-------------------------------------------------------------------------|
B----1-3-4-3-1----------1-3-1----------3-4-3-1-------1---4-3-1-3----------|
G--3-----------2-3----3-------3-2-3------------3-2-3------------3---------|
D-------------------------------------------------------------------------|
A-------------------------------------------------------------------------|
E-------------------------------------------------------------------------|

Verses (Let each chord ring):
e-----------------------|
B-----------------------|
G-3-----5-----7-----8---|
D-3-----5-----7-----8---|
A-1-----3-----5-----6---|
E-----------------------|

Pre-Chorus:
e-----------|
B-----------|
G-3~~~~~----|
D-3~~~~~----|
A-1~~~~~----|
E-----------|

Chorus:
e--------------------------------------|
B--------------------------------------|
G--33333--1010101010--88888-88888--3-3-|
D--33333--1010101010--88888-88888--3-3-|
A--11111--8-8-8-8-8---66666-66666--1-1-|
E--------------------------------------| 

Bridge(Gang Vocal part with the Awkward Swing Timing):
e-------------------------------------|
B-------------------------------------|
G-33333-----1010101010---88888--88888-|
D-33333-----1010101010---88888--88888-|   
A-11111-----8-8-8-8-8----66666--66666-|
E-------------------------------------|
Then:
e-----------------------|
B-----------------------|
G-3-----5-----7-----8---|
D-3-----5-----7-----8---|
A-1-----3-----5-----6---|
E-----------------------|
End On:
e-----------|
B-----------|
G-3~~~~~----|
D-3~~~~~----|
A-1~~~~~----|
E-----------|

SONG ORDER:
Intro Riff
Verse
Intro Riff
Verse
Intro Riff
Pre-Chorus
Chorus
Intro Riff
Verse
Intro Riff
Verse
Intro Riff
Pre-Chorus
Chorus
Gang Vocal/Bridge
Intro Riff


LYRICS:

I know a girl light on her feet, and when she dance she can't be beat
But when she dance, will she dance with me?
Get on the floor and move our bodies

I know you can dance, don't get me wrong
I'm sure you're just a little nervous
By the moves i make, i was in Japan and i made the shit shake

I know you can dance, don't get me wrong
I'm sure you're just a little thrown off
By the things i do, so fast i'm coming out of my velcro shoes

Girl of my dreams, doesn't know what she means to me

Don't get me wrong i feel like moving tonight
If you're not feeling it, this just won't feel right

I know you can dance, don't get me wrong
I'm sure you love getting down in the Motor City
wake up every night feelin' like P. Diddy

I know you can dance, don't get me wrong
I'm sure you're just thinking too much
about the way i move my body, start dancing everybody!

Girl of my dreams, doesn't know what she means to me

Don't get me wrong i feel like moving tonight
If you're not feeling it, this just won't feel right

(What?!) (Yeah!) (Come on!) (Alright!)
(What?!) (Yeah!) (Come on!) (Alright!)

Don't get me wrong i feel like moving tonight
If you're not feeling it, this just won't feel right

Don't get me wrong i feel like moving tonight
If you're not feeling it, this just won't feel right
Tap to rate this tab
# A B C D E F G H I J K L M N O P Q R S T U V W X Y Z