Song name
# A B C D E F G H I J K L M N O P Q R S T U V W X Y Z

Jonatha Brooke - Shame On Us tab

www.jonathabrooke.com
-------------------------------------------------------------------------------
			     SHAME ON US - Jonatha Brooke
-------------------------------------------------------------------------------
Tabbed by: Per
Email: budtz38@hotmail.com

Tuning: DADFCD

Verse riff:
  Dm7                     Gm7
  1   2   3   1   2   3   1   2   3   1   2   3
e|----0-0-0-0-----0-0-0-0-----0-0-0-0-----0-0-0-0----------------------------|
B|----0-0-0-0-----0-0-0-0-----0-0-0-0-----0-0-0-0----------------------------|
G|----0---0-------0---0-------5---5-------0---5------------------------------|
D|----0---2-------5---3-------0---0-------0---0------------------------------|
A|---------------------------------------------------------------------------|
E|0-----------0-----------5-----------5--------------------------------------|

Intro: 
Play 1st half of Verse riff.

Verse:

|Verse riff|...       |...       |...       |

|Gm/F      |Eř     Eb7|Verse riff|1st half  |


Bridge:
|Bb        |Gm7       |Dm7       |Gm7       |  

|Eb6,9     |Cadd11    |Eb6,9     |Ebm6,9    |


Chorus:
Same as verse.


 Gm/F   Eř   Eb7    Bb  Eb6,9 Cadd11 Ebm6,9
e|0-----0-----0-----0--------------------------------------------------------|
B|0-----0-----0-----0-----0-----0-----0--------------------------------------|
G|5-----2-----1-----0-----0-----0-----0--------------------------------------|
D|0-----0-----0-----0-----5-----2-----4--------------------------------------|
A|x-----x-----x-----x-----6-----3-----6--------------------------------------|
E|3-----2-----1-----8--------------------------------------------------------|
Tap to rate this tab
# A B C D E F G H I J K L M N O P Q R S T U V W X Y Z