Song name
# A B C D E F G H I J K L M N O P Q R S T U V W X Y Z

Jonathan Clay - A Little Time tab

This is my first tab, and the first tab of this artist who I definitely feel should be
more recognition than he is.  This is my favorite song by him.  The tab is roughly done,
I get more time I will fine tune it and add the bridge but for now it should be good 
for the many people requesting it.

CAPO 2ND FRET

Intro/verse


e--3-3---3--x--5-5-5--x---------x--3--x--5---------------------|
B--3-3---3--x--3-3-3--x--3-3-3--x--3--x--5---------------------|
G-----------x--3-3-3--x--5-5-5--x--5--x--7---------------------| 2X
D-----------x--3-3-3--x--5-5-5--x--5--x--7---------------------|
A--2-0h2-2--x--5-5-5--x--5-5-5--x--3--x--5---------------------|
E--3-3---3--x--5-5-5--x---------x-----x------------------------|


Chorus

e----------x-2-2-2-2--x-3-3-3-3---3-3--------------------------|
B--3-3-3---x-3-3-3-3--x-3-3-3-3---3-3--------------------------|
G--5-5-5---x-2-2-2-2--x----------------------------------------| 4x
D--5-5-5---x----------x----------------------------------------|
A--5-5-5---x----------x-2-2-2-0h2-2-0--------------------------|
E----------x----------x-3-3-3-3---3-3--------------------------|

http://www.jonathanclay.com/
Tap to rate this tab
# A B C D E F G H I J K L M N O P Q R S T U V W X Y Z