Song name
# A B C D E F G H I J K L M N O P Q R S T U V W X Y Z

Jonathan Clay - After All tab

Just a quick tab for the fantastic Jonathan Clay song After All. It think it sounds 
pretty accurate, in my biased oppinion. :P
 (x means muted string, 0 means open string) The timing and everything isnt hard to 
figure out. Please feel free to comment and send corrections. :)

Standrad Tuning, no Capo.

Intro/Verse

e--x-----x----0----0-----|e
B--x-----x----0----0-----|B
G--11----8----8----6-----|G
D--9-----9----9----7-----|D
A--11----x----x----x-----|A
E--x-----9----7----5-----|E

Chorus

e--x----x----0-----|e
B--x----x----0-----|B
G--11---11---6-----|G
D--9----9----7-----|D
A--11---x----x-----|A
E--x----11---5-----|E
Tap to rate this tab
 
# A B C D E F G H I J K L M N O P Q R S T U V W X Y Z