Song name
# A B C D E F G H I J K L M N O P Q R S T U V W X Y Z

Jonathan Clay - Heart On Fire tab

This song is very nice and so ive desided to make intro tab of it. if u want to
tell me something u can email me: glabaznadan@gmail.com
its my 1st tab so dont scold me^^



e|---------0-------0------0-----0-------0-------0----0-------0------0------3---|
B|---------1-------1------1-----1-------1-------1----0-------0------0------3---|
G|-------0-------0------------2-------2------------0-------0-------------0-----|
D|-----------------------------------------------------------------------------|
A|-----3------3------3------0------0------0------------------------------------|
E|-----------------------------------------------0------0------0------3--------|

e|----3------3-|
B|----3------3-|
G|--0----------|
D|-------------|
A|-------------|
E|3------3-----|
Tap to rate this tab
# A B C D E F G H I J K L M N O P Q R S T U V W X Y Z