Song name
# A B C D E F G H I J K L M N O P Q R S T U V W X Y Z

Jonathan Coulton - Still Alive tab

Help us improve GuitareTab! Take a short survey!
This is my first tab.. It's the actual vocals of Still Alive, AKA the most recognizable part.

E|-----3-2-0-0--2---------3-2-0-0--2------0-----------|
B|----------------------3-------------3---------------|
G|--------------------------------------------2-------|
D|----------------------------------------------------|
A|----------------------------------------------------|
E|----------------------------------------------------|

E|-----0--2-3-------------------2--------3-2-0-0--2---|
B|--3-----------3-2-----------------------------------|
G|--------------------2-2--2-2------------------------|
D|----------------------------------------------------|
A|----------------------------------------------------|
E|----------------------------------------------------|

E|---3-2-0-0-----2-----0----------0--2-3--------------|
B|-3---------------3------------------------3-2---3-5-|
G|------------------------2---------------------------|
D|----------------------------------------------------|
A|----------------------------------------------------|
E|----------------------------------------------------|


E|-----0-1-0---------------1--0-------------------1---|
B|---3-------3-1---------1-------3-1---3-1------1-----|
G|-2--------------2-3----------------3------2-3-------|
D|----------------------------------------------------|
A|----------------------------------------------------|
E|----------------------------------------------------|

E|-3-1-0-------0-1-1-----3-5--6-6-5---3--1-3--5-5-3--1-|
B|-------3--3------------------------------------------|
G|-----------------------------------------------------|
D|-----------------------------------------------------|
A|-----------------------------------------------------|
E|-----------------------------------------------------|

E|--------1-1-0--0-2-2--------------------------------|
B|-3-1-3----------------------------------------------|
G|----------------------------------------------------|
D|----------------------------------------------------|
A|----------------------------------------------------|
E|----------------------------------------------------|

That's all I have so far.. I'll add more later
Related for Still Alive tab