Song name
# A B C D E F G H I J K L M N O P Q R S T U V W X Y Z

Jonathan Coulton - Skullcrusher Mountain tab

-------------------------------------------------------------------------------
			Skullcrusher Mountain - Jonathan Coulton
-------------------------------------------------------------------------------
Listen to the Recording for Timing
Tabbed by: disca-limer8

Tuning: Standard

Intro/Verse Riff (Finger-picked)
e|-----------0---------------------|
B|-------0-----------0-------0-----|
G|---1-----------2-------2-------1-|
D|---------------------------------|
A|---------------------------------|
E|-0---0---0---0---0---0---0---0---| 

Tap to rate this tab
 
# A B C D E F G H I J K L M N O P Q R S T U V W X Y Z