Song name
# A B C D E F G H I J K L M N O P Q R S T U V W X Y Z

Jonathan Coulton - You Ruined Everthing tab

this is not the why jonathan plays it, but its simple and sounds good (i kinda remixed 
but not much, just did it to make it simple for beginners of fingerpicking). use finger 
OR ELSE.

E---------|---------|---------|
B---------|---------|---------|
G----0---0|------2--|--0------|
D------2--|--0-----1|----2----|
A--3------|----2----|---------|
E---------|---------|---------|

E---------|---------|---------|
B---------|---------|---------|
G----0---0|------2--|--0------|
D------2--|--0-----1|---------|
A--3------|----2----|---------|
E---------|---------|---------|

E---------|---------|---------|
B---------|---------|---------|
G----0---0|------2--|--0------|
D------2--|--0-----1|----2----|
A--3------|----2----|---------|
E---------|---------|---------|

E---------|---------|
B---------|---------|
G----0---0|----2----|
D------2--|--0------|
A--3------|---------|
E---------|---------|

just repeat this as many times as you what, i havent sang the song to it yet, so it 
not go with it. this is great for practicing fingrer picking.

have a good one
Tap to rate this tab
# A B C D E F G H I J K L M N O P Q R S T U V W X Y Z