Song name
# A B C D E F G H I J K L M N O P Q R S T U V W X Y Z

Jonathan Coulton - I Crush Everything chords

Highlighted       Show chord diagrams
Intro Riff:
   Cadd9 G/B  Cadd9 G/B    Cadd9 G      D   x2
|--0----------0---------|--0------------2--|
|--------3----------3---|--------3------3--|
|------0----------0-----|------0--------2--|
|-----2----------2------|-----2---------0--|
|--0h3---2----0h3---2---|--0h3---2p0--0----|
|-----------------------|-----------3------|

Chorus tabs:
G      D/F#    Em      A7      D           
--------------|---------------|--------2---3p2--0------|
--0------0----|--0-------2----|-----3-----------------3|
-----0-------0|------0-------0|---2-----2-----2-----2--|
---0-------0--|----2-------2--|0-----0-----0-----0-----|
--------------|--------0------|------------------------|
3------2------|0--------------|------------------------|

G      D/F#    Em      A7      Bsus2       Bm
--------------|---------------|-----------------2-----|
--0------0----|--0-------2----|--------2---2h3-----3--|
-----0-------0|------0-------0|-----4-----------------|
---0-------0--|----2-------2--|---4-----4-----4-----4-|
--------------|--------0------|2-----2-----2-----2----|
3------2------|0--------------|-----------------------|

G      D/F#    Em      A7      D           
--------------|---------------|--------2---3p2--0------|
--0------0----|--0-------2----|-----3-----------------3|
-----0-------0|------0-------0|---2-----2-----2-----2--|
---0-------0--|----2-------2--|0-----0-----0-----0-----|
--------------|--------0------|------------------------|
3------2------|0--------------|------------------------|

Chords

D      xx0232   
Em7    xx2030
G      3x003x
A7sus4 x02030
Cadd9  x30030
G/B    x20030
G(2)   3x000x
D/F#   2x0x0x
Em7(2) 022030
A7     x02020
Dsus4  xx0233
Dsus2  xx0230
Bsus2  x24422
Bm     x24432
F#m    244222
Em     022000

Verse 1
D        Em7 D          Em7  
 I lie below, you float above
D                       Em7              D            Em7
 In the pretty white ships that I've been dreaming of
        G              A7sus4
And I'd like to swim beside you
        G             A7sus4
Getting dizzy in your wake
        G               A7sus4
Getting close enough to touch you
        G               A7sus4           D
Getting brave enough to take you into my arms
              Cadd9           G/B
And bring you down to be with me

Chorus 1
G(2)   D/F#     Em7        A7 D Dsus4 D Dsus2
 But I can't do that thing anymore
G(2)     D/F#   Em7           Bsus2 Bm
 I can't be the thing I was before
G(2)   D/F# Em7    A7   D
 Maybe I am better off alone
        G       A7             G       A7
Because I crush everything and I crush everything 
    G       A7   D
and I crush everything

Intro Riff

Verse 2
D          Em7    D               Em7
 My body's strong, but my will is weak
D                  Em7        D            Em7
 I got pretty nice arms, but I hate my beak
        G                A7sus4
And the dolphins are all phonies
          G              A7sus4
They seem nice enough at first
            G               A7sus4
But they pretend to be your friend
           G               A7sus4              D
Until they see you at your worst and then they leave you
          Cadd9          G/B
Without a word they swim away

Chorus 2
G(2)  D/F#     Em7        A7 D Dsus4 D Dsus2
 So I can't do that thing anymore
G(2)     D/F#   Em7           Bsus2 Bm
 I can't be the thing I was before
G(2)   D/F# Em7    A7   D
 Maybe I am better off alone
        G       A7             G       A7
Because I crush everything and I crush everything 
    G       A7   Bm
and I crush everything

Bridge
          Bm      F#m    Em  G(2)
And every thing I want I take
          Bm      F#m    Em   G(2)
And every thing I love I break
          Bm      F#m  Em  G(2)
And every night I lie awake

Intro Riff

Verse 3
D                   Em7  D                   Em7
 Did the stars come out?  Did the world spin round?
D                    Em7                          Em7
 Does it matter that much when you're ten miles down?
       G                  A7sus4
In the light that filters down
        G            A7sus4
Into my giant yellow eye
      G               A7sus4
I can see the sails unfolding
           G                 A7sus4       D
Stretching white against the sky and I forgive them
     Cadd9          G/B
I forgive and I let go

Chorus 3
G(2)     D/F#     Em7        A7    D Dsus4 D Dsus2
 Cause I can't do that thing anymore
G(2)     D/F#   Em7           Bsus2 Bm
 I can't be the thing I was before
G(2)   D/F# Em7    A7   D
 Maybe I am better off alone
        G       A7             G       A7
Because I crush everything and I crush everything 
    G       A7   D
and I crush everything

Intro Riff

Outro
D        Em7 D          Em7
 I lie below, you float above
D                       Em7          D            
 In the pretty white ships that I am dreaming of
Tap to rate this tab
# A B C D E F G H I J K L M N O P Q R S T U V W X Y Z