Jonathan Coulton - Want You Gone tab

"Want You Gone" from the end of Portal 2. Sung by GLaDOS (Ellen McLain) and 
written by Jonathan Coulton. 
This is my first tab so sorry if theres any parts that seem incorrect. 
If you have any questions or comments email me at duffman5994@gmail.com. 
There's only one place that I'm a little unsure about so please just bear with me

Tuning: Standard             


Intro:
e---------|----------|
B---------|----------|
G---------|----------|
D--2-2-1--|---0-0-3--|
A-0-0-0---|--0-0-0---|
E---------|----------|

Verse:
Well here we are again. It's always such a pleasure. Remember when you tried to 
kill me twice.

e|---------|---------|---------|-----------------|
B|---------|---------|---------|-----------------|
G|---------|---------|---------|-----------------|
D|--2-2-1--|--0-0-3--|--2-2-1--|--0-0------------|
A|-0-0-0---|-0-0-0---|-0-0-0---|-0-0------------2|
E|---------|---------|---------|-----0-0-0-0-2-4-|

Oh how we laughed and laughed. Except I wasn't laughing. Under the circumstances 
I've been shockingly nice.

e|---------|---------|---------|----------|
B|---------|---------|---------|----------|
G|---------|---------|---------|----------|
D|--2-2-1--|--0-0-3--|--2-2-1--|--0-0-3-3-|
A|-0-0-0---|-0-0-0---|-0-0-0---|-0-0-4-4--|
E|---------|---------|---------|----------|

Chorus: 
You want your freedom? Take it. That's what I'm counting on.  
   F#        B         C#        B         F#        B         C#        B
e|-2-2-2-2-|-2-2-2-2--|4-4-4-4-|-2-2-2-2-|-2-2-2-2-|-2-2-2-2-|-4-4-4-4-|-2-2-2-2-|         
B|-2-2-2-2-|-4-4-4-4-|-6-6-6-6-|-4-4-4-4-|-2-2-2-2-|-4-4-4-4-|-6-6-6-6-|-4-4-4-4-|
G|-3-3-3-3-|-4-4-4-4-|-6-6-6-6-|-4-4-4-4-|-3-3-3-3-|-4-4-4-4-|-6-6-6-6-|-4-4-4-4-|
D|-4-4-4-4-|-4-4-4-4-|-6-6-6-6-|-4-4-4-4-|-4-4-4-4-|-4-4-4-4-|-6-6-6-6-|-4-4-4-4-|
A|-4-4-4-4-|-2-2-2-2-|-4-4-4-4-|-2-2-2-2-|-4-4-4-4-|-2-2-2-2-|-4-4-4-4-|-2-2-2-2-|
E|-2-2-2-2-|-X-X-X-X-|-X-X-X-X-|-X-X-X-X-|-2-2-2-2-|-X-X-X-X-|-X-X-X-X-|-X-X-X-X-|

I used to want you dead but, now I only want you gone
   F#        B         C#        B         Bm        E
e|-2-2-2-2-|-2-2-2-2-|-4-4-4-4-|-2-2-2-2-|-2-2-2-2-|-0-0-0-0-|
B|-2-2-2-2-|-4-4-4-4-|-6-6-6-6-|-4-4-4-4-|-3-3-3-3-|-0-0-0-0-|
G|-3-3-3-3-|-4-4-4-4-|-6-6-6-6-|-4-4-4-4-|-4-4-4-4-|-1-1-1-1-|
D|-4-4-4-4-|-4-4-4-4-|-6-6-6-6-|-4-4-4-4-|-4-4-4-4-|-2-2-2-2-|
A|-4-4-4-4-|-2-2-2-2-|-4-4-4-4-|-2-2-2-2-|-2-2-2-2-|-2-2-2-2-|
E|-2-2-2-2-|-X-X-X-X-|-X-X-X-X-|-X-X-X-X-|-X-X-X-X-|-0-0-0-0-|

Verse 2:      

e|---------|---------|
B|---------|---------|
G|---------|---------|
D|--2-2-1--|--0-0-3--|
A|-0-0-0---|-0-0-0---|
E|---------|---------|

She was a lot like you. (Maybe not quite as heavy. Now little Caroline is in here too.
e|---------|---------|---------|-----------------|
B|---------|---------|---------|-----------------|
G|---------|---------|---------|-----------------|
D|--2-2-1--|--0-0-3--|--2-2-1--|--0-0------------|
A|-0-0-0---|-0-0-0---|-0-0-0---|-0-0------------2|
E|---------|---------|---------|-----0-0-0-0-2-4-|

One day they woke me up. So I could live forever. It's such a shame the same will 
never happen to you.
e|---------|---------|---------|-----------|
B|---------|---------|---------|-----------|
G|---------|---------|---------|-----------|
D|--2-2-1--|--0-0-3--|--2-2-1--|--0-0-3-3--|
A|-0-0-0---|-0-0-0---|-0-0-0---|-0-0-4-4---|
E|---------|---------|---------|-----------|

Chorus 2:
You've got your short sad life left. That's what I'm counting on.
   F#        B         C#        B         F#        B         C#        B
e|-2-2-2-2-|-2-2-2-2--|4-4-4-4-|-2-2-2-2-|-2-2-2-2-|-2-2-2-2-|-4-4-4-4-|-2-2-2-2-|         
B|-2-2-2-2-|-4-4-4-4-|-6-6-6-6-|-4-4-4-4-|-2-2-2-2-|-4-4-4-4-|-6-6-6-6-|-4-4-4-4-|
G|-3-3-3-3-|-4-4-4-4-|-6-6-6-6-|-4-4-4-4-|-3-3-3-3-|-4-4-4-4-|-6-6-6-6-|-4-4-4-4-|
D|-4-4-4-4-|-4-4-4-4-|-6-6-6-6-|-4-4-4-4-|-4-4-4-4-|-4-4-4-4-|-6-6-6-6-|-4-4-4-4-|
A|-4-4-4-4-|-2-2-2-2-|-4-4-4-4-|-2-2-2-2-|-4-4-4-4-|-2-2-2-2-|-4-4-4-4-|-2-2-2-2-|
E|-2-2-2-2-|-X-X-X-X-|-X-X-X-X-|-X-X-X-X-|-2-2-2-2-|-X-X-X-X-|-X-X-X-X-|-X-X-X-X-|

I'll let you get right to it. Now I only want you gone
   F#        B         C#        B         Bm        E
e|-2-2-2-2-|-2-2-2-2-|-4-4-4-4-|-2-2-2-2-|-2-2-2-2-|-0-0-0-0-|
B|-2-2-2-2-|-4-4-4-4-|-6-6-6-6-|-4-4-4-4-|-3-3-3-3-|-0-0-0-0-|
G|-3-3-3-3-|-4-4-4-4-|-6-6-6-6-|-4-4-4-4-|-4-4-4-4-|-1-1-1-1-|
D|-4-4-4-4-|-4-4-4-4-|-6-6-6-6-|-4-4-4-4-|-4-4-4-4-|-2-2-2-2-|
A|-4-4-4-4-|-2-2-2-2-|-4-4-4-4-|-2-2-2-2-|-2-2-2-2-|-2-2-2-2-|
E|-2-2-2-2-|-X-X-X-X-|-X-X-X-X-|-X-X-X-X-|-X-X-X-X-|-0-0-0-0-|

Verse 3:

e|---------|---------|
B|---------|---------|
G|---------|---------|
D|--2-2-1--|--0-0-3--|
A|-0-0-0---|-0-0-0---|
E|---------|---------|

Goodbye my only friend. Oh, did you think I meant you? That would be funny if it weren't so sad.
e|---------|----------|---------|-----------------|
B|---------|----------|---------|-----------------|
G|---------|----------|---------|-----------------|
D|--2-2-1--|----------|--2-2-1--|--0-0------------|
A|-0-0-0---|----------|-0-0-0---|-0-0------------2|
E|---------|----------|---------|-----0-0-0-0-2-4-|

Well you have been replaced. I don't need anyone now. When I delete you maybe I'll 
stop feeling so bad.
e|---------|---------|---------|----------|
B|---------|---------|---------|----------|
G|---------|---------|---------|----------|
D|--2-2-1--|--0-0-3--|--2-2-1--|--0-0-3-3-|
A|-0-0-0---|-0-0-0---|-0-0-0---|-0-0-4-4--|
E|---------|---------|---------|----------|

Chorus 3:
Go make some new disaster. That's what I'm counting on.
   F#        B         C#        B         F#        B         C#        B
e|-2-2-2-2-|-2-2-2-2--|4-4-4-4-|-2-2-2-2-|-2-2-2-2-|-2-2-2-2-|-4-4-4-4-|-2-2-2-2-|         
B|-2-2-2-2-|-4-4-4-4-|-6-6-6-6-|-4-4-4-4-|-2-2-2-2-|-4-4-4-4-|-6-6-6-6-|-4-4-4-4-|
G|-3-3-3-3-|-4-4-4-4-|-6-6-6-6-|-4-4-4-4-|-3-3-3-3-|-4-4-4-4-|-6-6-6-6-|-4-4-4-4-|
D|-4-4-4-4-|-4-4-4-4-|-6-6-6-6-|-4-4-4-4-|-4-4-4-4-|-4-4-4-4-|-6-6-6-6-|-4-4-4-4-|
A|-4-4-4-4-|-2-2-2-2-|-4-4-4-4-|-2-2-2-2-|-4-4-4-4-|-2-2-2-2-|-4-4-4-4-|-2-2-2-2-|
E|-2-2-2-2-|-X-X-X-X-|-X-X-X-X-|-X-X-X-X-|-2-2-2-2-|-X-X-X-X-|-X-X-X-X-|-X-X-X-X-|


You're someone else's problem. Now I only want you....
   F#        B         C#        B         Bm        E
e|-2-2-2-2-|-2-2-2-2-|-4-4-4-4-|-2-2-2-2-|-2-2-2-2-|-0-0-0-0-|
B|-2-2-2-2-|-4-4-4-4-|-6-6-6-6-|-4-4-4-4-|-3-3-3-3-|-0-0-0-0-|
G|-3-3-3-3-|-4-4-4-4-|-6-6-6-6-|-4-4-4-4-|-4-4-4-4-|-1-1-1-1-|
D|-4-4-4-4-|-4-4-4-4-|-6-6-6-6-|-4-4-4-4-|-4-4-4-4-|-2-2-2-2-|
A|-4-4-4-4-|-2-2-2-2-|-4-4-4-4-|-2-2-2-2-|-2-2-2-2-|-2-2-2-2-|
E|-2-2-2-2-|-X-X-X-X-|-X-X-X-X-|-X-X-X-X-|-X-X-X-X-|-0-0-0-0-|
....gone.
   A   G#m F#m E
e|-5---4--|--2---0-|
B|-5---4--|--2---0-|
G|-6---4--|--2---1-|
D|-7---6--|--4---2-|
A|-7---6--|--4---2-|
E|-5---4--|--2---0-|

Now I only want you gone.
   Bm        E         A   B#m   F#m E
e|-2-2-2-2-|-0-0-0-0-|-5---4--|--2---0-|
B|-3-3-3-3-|-0-0-0-0-|-5---4--|--2---0-|
G|-4-4-4-4-|-1-1-1-1-|-6---4--|--2---1-|
D|-4-4-4-4-|-2-2-2-2-|-7---6--|--4---2-|
A|-2-2-2-2-|-2-2-2-2-|-7---6--|--4---2-|
E|-X-X-X-X-|-0-0-0-0-|-5---4--|--2---0-|

Now I only want you gone.
   Bm      E       A
e|-2-2-2-2-|-0-0-0-0-|-0------|
B|-3-3-3-3-|-0-0-0-0-|-2------|
G|-4-4-4-4-|-1-1-1-1-|-2------|
D|-4-4-4-4-|-2-2-2-2-|-2------|
A|-2-2-2-2-|-2-2-2-2-|-0------|
E|-X-X-X-X-|-0-0-0-0-|-0------|


Thanks and please rate.
Tap to rate this tab
 
# A B C D E F G H I J K L M N O P Q R S T U V W X Y Z