Song name
# A B C D E F G H I J K L M N O P Q R S T U V W X Y Z

Jonathan Coulton - Want You Gone tab

-------------------------------------------------------------------------------
	          WANT YOU GONE - Jonathan Coulton (GLaDOS)
-------------------------------------------------------------------------------
Tabbed by:  Joe T
Email:  ug@42istheanswer.tk

Tuning:  Standard

This is the song that ends the single player campaign of Portal 2.  My first tab,
hope you all enjoy.  Please send any corrections to the above e-mail address.  

[INTRO:]
e|--------------------------------|
B|--------------------------------|
G|--------------------------------|
D|--------------------------------|
A|--7---7---6-------5---5---9-----|
E|5---5---5-------5---5---5-------|


[VERSE 1:]
  Well here we are again / It's always such a pleasure
e|--------------------------------|
B|--------------------------------|
G|--------------------------------|
D|--------------------------------|
A|--7---7---6-------5---5---9-----|
E|5---5---5-------5---5---5-------|

  Remember when you tried / to kill me twice?
e|--------------------------------|
B|--------------------------------|
G|--------------------------------|
D|--------------------------------|
A|--7---7---6-------5---5---------|
E|5---5---5-------5---5---0000247-|

  Oh how we laughed and laughed / except I wasn't laughing
e|--------------------------------|
B|--------------------------------|
G|--------------------------------|
D|--------------------------------|
A|--7---7---6-------5---5---9-----|
E|5---5---5-------5---5---5-------|

  Under the circumstances I've been shockingly nice
e|--------------------------------|
B|--------------------------------|
G|--------------------------------|
D|------------------------------6-|
A|--7---7---6-------5---5---9-----|
E|5---5---5-------5---5---5---5---|


[CHORUS 1:]
  You want your freedom? / Take it
e|2---2---2---2---2---2---2---2---|
B|2---2---2---2---2---2---4---4---|
G|3---3---3---3---3---3---3---3---|
D|4---4---4---4---4---4---4---4---|
A|--------------------------------|
E|--------------------------------|

  That's what I'm counting on
e|2---2---2---2---2---2---2---2---|
B|2---2---2---2---2---2---4---4---|
G|3---3---3---3---3---3---3---3---|
D|4---4---4---4---4---4---4---4---|
A|--------------------------------|
E|--------------------------------|

  I used to want you dead / but 
e|2---2---2---2---2---2---2---2---|
B|2---2---2---2---2---2---4---4---|
G|3---3---3---3---3---3---3---3---|
D|4---4---4---4---4---4---4---4---|
A|--------------------------------|
E|--------------------------------|

  now I only want you gone
e|2---2---4---4-----------------------------------|
B|3---3---5---5-----------------------------------|
G|2---2---4---4-----------------------------------|
D|0---0---2---2-----------------------------------|
A|------------------7---7---6---x---5---5---8---x-|
E|----------------5---5---5---x---5---5---5---x---|


[VERSE 2:]
She was a lot like you
(Maybe not quite as heavy)
Now little Caroline is in here too
One day they woke me up
So I could live forever
It's such a shame the same 
will never happen to you

[CHORUS 2:]
You've got your 
short sad 
life left
That's what I'm counting on
I'll let you get right to it
Now I only want you gone

[VERSE 3, no guitar on second line:]
Goodbye my only friend
Oh, did you think I meant you?
That would be funny
if it weren't so sad
Well you have been replaced
I don't need anyone now
When I delete you maybe
I'll stop feeling so bad

[CHORUS 3:]
Go make some new disaster
That's what I'm counting on
You're someone else's problem

[OUTRO:]
  Now I only want you gone
e|2---2---4---4---0---0---2---2---|
B|3---3---5---5---2---2---2---2---|
G|2---2---4---4---2---2---3---3---|
D|0---0---2---2---2---2---4---4---|
A|--------------------------------|
E|--------------------------------|

  Now I only want you gone
e|2---2---4---4---0---0---2---2---|
B|3---3---5---5---2---2---2---2---|
G|2---2---4---4---2---2---3---3---|
D|0---0---2---2---2---2---4---4---|
A|--------------------------------|
E|--------------------------------|

  Now I only want you / gone
e|2---2---4---4---0---------------|
B|3---3---5---5---2---------------|
G|2---2---4---4---2--(let ring)---|
D|0---0---2---2---2---------------|
A|--------------------------------|
E|--------------------------------|
Tap to rate this tab
 
# A B C D E F G H I J K L M N O P Q R S T U V W X Y Z