Jonathan Coulton - Want You Gone tab

Tabbed by Czafa

Chords:
   F#   G#m7  F#/Bb  B    Bm     E     A
e|-2-----4-----------7-----7-----0-----0-|
B|-2-----4-----------7-----7-----0-----2-|
G|-3-----4----(6)----8-----7-----1-----2-|
D|-4-----4-----8-----9-----9-----2-----2-|
A|-4-----6-----9-----9-----9-----2-----0-|
E|-2-----4-----6-----7-----7-----0-------|


Verse riff:
    A               D               A               D       E
e|-------------------------------------------------------------------|
B|-------------------------------------------------------------------|
G|----2---2---2-------2---2---2-------2---2---2-------2---2----------|
D|----2---2---1-------0---0---3-------2---2---1-------0---0----------|
A|--0---0---0-------0---0---0-------0---0---0-------0---0----------2-|
E|-----------------------------------------------------------000024--|


A
Well here we are again
D
It's always such a pleasure
A
Remember when you tried
D          E
to kill me twice?
A
Oh how we laughed and laughed
D
Except I wasn't laughing
A
Under the circumstances
D         C#
I've been shockingly nice


F# G#m7            F#/Bb   B
   You want your freedom? Take it
F# G#m7               F#/Bb    B
   That's what I'm counting on 
F# G#m7       F#/Bb    B
   I used to want you dead but
Bm         E           A
Now I only want you gone

A
She was a lot like you
D
(Maybe not quite as heavy)
A
Now little Caroline is
D       E
in here too
A
One day they woke me up
D
So I could live forever
A
It's such a shame the same
     D     C#
will never happen to you


F# G#m7            F#/Bb     B
   You've got your short sad life left
F# G#m7               F#/Bb    B
   That's what I'm counting on
F# G#m7         F#/Bb       B
   I'll let you get right to it
Bm         E           A
Now I only want you gone

A
Goodbye my only friend
-
Oh, did you think I meant you?
A
That would be funny
        D           E
if it weren't so sad
A
Well you have been replaced
D 
I don't need anyone now
A
When I delete you maybe
D         C#
I'll stop feeling so bad

F# G#m7          F#/Bb B
   Go make some new disaster
F# G#m7               F#/Bb    B
   That's what I'm counting on
F# G#m7             F#/Bb   B 
   You're someone else's problem
Bm         E         A  /G# F# E   
Now I only want you gone
Bm         E         A  /G# F# E 
Now I only want you gone
Bm         E         A
Now I only want you gone...
Tap to rate this tab
 
# A B C D E F G H I J K L M N O P Q R S T U V W X Y Z