Song name
# A B C D E F G H I J K L M N O P Q R S T U V W X Y Z

Jonathan Coulton - Want You Gone Fingerpick tab

Intro/Verse
e--------------------------------------|
B--------------------------------------|
G--2----2---2--------2----2---2--------|
D-----2---2---1---------0---0----3-----|
A--0----0---0--------0----0---0--------|
E--------------------------------------|

Chorus

F#, G#, A#, then B barre chords with this fingerpick pattern:

    (F# example)
e-----------------------|
B-----------------------|
G-------3---------------|
D----4----4-------------|
A-------4---------------|
E-2---------------------|

Then D chord:
e---------2----------|
B-----3-----3--------|
G---------2----------|
D--0-----------------|
A--------------------|
E--------------------|

Then E chord:
e------------------|
B---------0--------|
G-----1-----1------|
D---------2--------|
A--2---------------|
E------------------|

Repeat Intro/Verse and Chorus until you get to Outro:

( D chord:
( e---------2----------|
( B-----3-----3--------|
( G---------2----------|
( D--0-----------------|
( A--------------------|
( E--------------------|

Then E chord:
e------------------|
B---------0--------|
G-----1-----1------|
D---------2--------|
A--2---------------|
E------------------|

A chord
e---------------------------   )
B--------2-----------------    )
G----2------2--------------    )
D--------2------------------ x2)  x2
A-0-------------------------   )
E---------------------------   )

Then play it a third time, but instead of doing the A chord pattern twice, just strum 
the A chord.
Let me know if it's too bland for you, it is pretty much the same picking pattern 
throughout the whole song with the exception of the Intro/Verse riff, but it's fun if you want 
something different sounding than just the chords. :)
Tap to rate this tab
 
# A B C D E F G H I J K L M N O P Q R S T U V W X Y Z